Song name
# A B C D E F G H I J K L M N O P Q R S T U V W X Y Z

Trevor Hall - Lullaby tab

theres no real right or wrong way to play this song
this tab is from lace up your shoes but anything you do with
the notes that trevor uses will sound beautiful i'm sure
no pick

tuning: DADGBe
capo: none

trevor hall...amazing song, very chill
tabbed by DAN BERRY

e:------------|
B:-----3------|
G:------------|
D:-0-0--0-0-0-|
A:------------| intro...just mess around
E:0-0-0----0--|

there's a whole lot more structure to my tab than when he plays it
i keep time and rhythm, but feel free to make it your own.
e:----------------------------------------------------------------------------|
B:3-5-5s7-7--7--7--7--7-7h8--8--8--8--8-7-5s7-7--7--7--5s7s5p0-0h3-3--3--3----|
G:----------------------------------------------------------------------------|
D:0-0-0----0--0--0--0---0-----0--0--0-0-0-0----0--0--0-0------------0--0--0x2-|
A:----------------------------------------------------------------------------|
D:-------0--0--0--0--0------0--0--0--0-------0--0--0--0-----------0--0--0--0--|

e:--------------------------------|
B:3-2-0---------------------------|
G:------2-2h4p2p0-0h2-2--2--2--2--|
D:0-0-0-0-0-------0----0--0--0----| x2
A:--------------------------------|
D:-0-0-0-0-----------0--0--0--0---|
                                        ending 1
e:---------------------0------- ----------------------0-----|
B:0--0---2--2--2--2-3----3---3- -3--3--3--3--5b6r5-3----3-3-|
G:----------------------------- ----------------------------|
D:0---0--0---0--0---0------0-0- -0---0--0--0-0-----0--------|
A:----------------------------- ----------------------------|
D:5-5--5-5-5--5--5--5-5-5-5-5-- -0-0--0--0--0------0-0-0-0--|
Tap to rate this tab
# A B C D E F G H I J K L M N O P Q R S T U V W X Y Z