Trevor Hall - All I Ever Know tab

Artist: Trevor Hall
Song: All I Ever Know
Tabbed by: midnightbingers


Tuning: Standard

Intro/Outro

e|--------------0---------------0---------------0---|
B|--5---7---8-------5---7---3-------5---7---8-------|
G|--------------------------------------------------|
D|--------------------------------------------------|
A|--3---5---7-------3---5---2-------3---5---7-------|
E|--------------------------------------------------|

e|--------0---------0---|
B|----12--------10------|
G|---0---------0--------|
D|----------------------|
A|-10---------9---------|
E|----------------------|

Verse

e|--------------0---------------0---------------0---|
B|--5---7---8-------5---7---3-------5---7---8-------|
G|--------------------------------------------------|
D|--------------------------------------------------|
A|--3---5---7-------3---5---2-------3---5---7-------|
E|--------------------------------------------------|

e|--------0---------0---|
B|----12--------10------|
G|---0---------0--------|  (Repeat 2x)
D|----------------------|
A|-10---------9---------|
E|----------------------|

Pre-Chorus/Chorus

e|-----(0)-----(0)-----(0)------0----------|    Trevor doesn't seem to
B|--5-------7-------8-------7--------------|    always play the high E
G|-----------------------------------------|    string, sometimes varies
D|-----------------------------------------|    which times he plays it
A|--3-------5-------7-------5--------------| NOTE: (0)
E|-----------------------------------------|

e|----0-----0-----0----------0-----0-----0------0-----0-----0-----0|
B|-5-----7-----8-----5----5-----7-----8-----12-----5-----7-----8---|
G|-----------------------------------------------------------------|
D|-----------------------------------------------------------------|
A|-3-----5-----7-----7----7-----5-----7-----10-----7-----5-----7---|
E|-----------------------------------------------------------------|

I don't know the chords he uses during the Pre-Chorus/Chorus when he starts strumming, 
but I have played around with these

C:     |x32010|
D:     |xx0232|
CaddG: |332010|
Em:    |022000|

Hopefully someone can figure out the real chords he uses, because these are 
nowhere near correct, lol
Tap to rate this tab
 
# A B C D E F G H I J K L M N O P Q R S T U V W X Y Z