Song name
# A B C D E F G H I J K L M N O P Q R S T U V W X Y Z

Tribal Seeds - Creator tab

Intro:
e--------------------------------------------------------|
B--------------------------------------------------------|
G----------------------------8-9-9-----------------------|
D-------------11-11-----11---------9---------------------|       x4
A-11-11-11-----------11----------------------------------|
E--------------------------------------------------------|

Rest of song

e--------------------------------------------------------|
B--6-------6--------9--------4---------------------------|
G--6-------6--------9--------4---------------------------|
D--6-------6--------9--------4---------------------------|
A--4-------4--------7--------2---------------------------|
E--------------------------------------------------------|
Tap to rate this tab
 
# A B C D E F G H I J K L M N O P Q R S T U V W X Y Z