Song name
# A B C D E F G H I J K L M N O P Q R S T U V W X Y Z

Triggerfinger - Cherry tab

Cherry by Triggerfinger, in Drop D tuning (I'm pretty sure that's not how Ruben plays it 
though) These are all the individual parts.

 E|---|---|---|---|---|---|---|---|---|---|---|---|---|---|---|---|---|
 B|---|---|---|---|---|---|---|---|---|---|---|---|---|---|---|---|---|
 G|---|---5---5---5---5---5---5---5---5---5---5---5---5---5---5---5---|
 D|---|---x---x---x---x---x---x---x---x---x---x---x---x---x---x---x---|
 A|---|---3---3---3---3---3---3---3---3---3---3---3---3---3---3---3---|
 D|---|---|---|---|---|---|---|---|---|---|---|---|---|---|---|---|---|


 E|---|---|---|---|---|---|---|---|---|---|---|---|---|---|---|---|---|
 B|---|---|---|---|---|---|---|---|---|---|---|---|---|---|---|---|---|
 G|---3--///--5---5---5---5---5---5---5---5---5---5---5---5---5---5---|
 D|---x--///--x---x---x---x---x---x---x---x---x---x---x---x---x---x---|
 A|---1--///--3---3---3---3---3---3---3---3---3---3---3---3---3---3---|
 D|---|---|---|---|---|---|---|---|---|---|---|---|---|---|---|---|---|



 E|---|---|---|---|---|---|---|---|---|---|---|---|---|---|---|---|---|
 B|---|---|---|---|---|---|---|---|---|---|---|---|---|---|---|---|---|
 G|---3--///--5---5---5--12--12--11--11--10--10--10--10--10--10--10---|
 D|---x--///--x---x---x---x---x---x---x---x---x---x---x---x---x---x---|
 A|---1--///--3---3---3--10--10---9---9---8---8---8---8---8---8---8---|
 D|---|---|---|---|---|---|---|---|---|---|---|---|---|---|---|---|---|

-----------------------------------------------------------------------------------

 E|---|---|---|---|---|---|---|---|---|---|---|---|---|---|---|---|---|
 B|---|---|---|---|---|---|---|---|---|---|---|---|---|---|---|---|---|
 G|---3--///--5---5---5--12--12--11--11--10--10--10--10---8---8--10---|
 D|---x--///--x---x---x---x---x---x---x---x---x---x---x---x---x---x---|
 A|---1--///--3---3---3--10--10---9---9---8---8---8---8---6---6---6---|
 D|---|---|---|---|---|---|---|---|---|---|---|---|---|---|---|---|---|



 E|---|---|---|---|---|---|---|---|---|---|---|---|---|---|---|---|---|
 B|---|---|---|---|---|---|---|---|---|---|---|---|---|---|---|---|---|
 G|---8---5---5---5---5--12--12--11--11--10--10--10--10--10--10--10---|
 D|---x---x---x---x---x---x---x---x---x---x---x---x---x---x---x---x---|
 A|---6---3---3---3---3--10--10---9---9---8---8---8---8---8---8---8---|
 D|---|---|---|---|---|---|---|---|---|---|---|---|---|---|---|---|---|

                         Repeat this part 4 times
-------------------------------------------------------------------------------------

 E|---|---|---|---|---|---|---|---|---|---|---|---|---|-^-|---|---|---|
 B|---|---|---|---|---|---|---|---|---|---|---|---8--b9--b9---|---|---|
 G|---|---|---|---|---|---|---|---|---|---|---|---|---|---|---|---|---|
 D|---0---0---0---0---7---7---6---6---5---5---5---|---|---|---|---|---|
 A|---0---0---0---0---7---7---6---6---5---5---5---|---|---|---|---|---|
 D|---0---0---0---0---7---7---6---6---5---5---5---|---|---|---|---|---|


                                                            Bend back
 E|---|---|---|---|---|---|---|---|---|---|---|---|---|-^-|---|---|---|
 B|---|---|---|---|---|---|---|---|---|---|---|---8--b9--b8---|---|---|
 G|---|---|---|---|---|---|---|---|---|---|---|---|---|---|---|---|---|
 D|---0---0---0---0---7---7---6---6---5---5---5---|---|---|---|---|---|
 A|---0---0---0---0---7---7---6---6---5---5---5---|---|---|---|---|---|
 D|---0---0---0---0---7---7---6---6---5---5---5---|---|---|---|---|---|

                                Repeatthis part 2  times
------------------------------------------------------------------------------------


 E|---|---|---|---|---|---|---|---|---|---|---|---|---|---|---|---|---|---|
 B|---|---|---|---|---|---|---|---|---|---|---|---|---|---|---|---|---|---|
 G|---|---|---|---|---|---|---|---|---|---|---|---|---|---|---|---|---|---|
 D|---|--10--10--10--10--10--10--10--10--10--10--10--10--10--10--10--10---|
 A|---|---|---|---|---|---|---|---|---|---|---|---|---|---|---|---|---|---|
 D|---|---|---|---|---|---|---|---|---|---|---|---|---|---|---|---|---|---|



 E|---|---|---|---|---|---|---|---|---|---|---|---|---|---|---|---|---|---|
 B|---|---|---|---|---|---|---|---|---|---|---|---|---|---|---|---|---|---|
 G|---|---|---|---|---|---|---|---|---|---|---|---|---|---|---|---|---|---|
 D|---8--///-10--10--10--10--10--10--10--10--10--10--10--10--10--10--10---|
 A|---|---|---|---|---|---|---|---|---|---|---|---|---|---|---|---|---|---|
 D|---|---|---|---|---|---|---|---|---|---|---|---|---|---|---|---|---|---|
Tap to rate this tab
 
# A B C D E F G H I J K L M N O P Q R S T U V W X Y Z