Song name
# A B C D E F G H I J K L M N O P Q R S T U V W X Y Z

Tripping Daisy - Bang tab

“Bang”
Tripping Daisy
I Am Elastic Firecracker

Tabbed by Matthew Frank
mister_rocketpop@hotmail.com

Verse: [G1]
E|--------------------------------------------------------------|
B|--------------------------------------------------------------|
G|--------------------------------------------------------------|
D|-9h11--11---9h11-11---9h11--11---9h11-11---6h8--8---6h8-9-----|
A|--------------------------------------------------------------|
E|--------------------------------------------------------------|

Verse: [G2] [distorted fill]
E|-----------|
B|-----------|
G|-8----9--9-|
D|-8----9--9-|
A|-6----7--7-|
E|-----------|

Pre Chorus: [both guitars]
E|-----------------------------------------|
B|-----------------------------------------|
G|-9/11---11---14-14--14----9----9---0-----|
D|-9/11---11---14-14--14----9----9---0-9---|
A|-7/-9----9---12-12--12----7----7---0-9---|
E|-------------------------------------7---|

Chorus: [G1]
E|-----| 
B|-/11-|
G|-----|
D|-----|
A|-----|
E|-----|

E|-----|
B|-/12-|
G|-----|
D|-----|
A|-----|
E|-----|

[x4]
E|----------|
B|-/11-12-11|
G|----------|
D|----------|
A|----------|
E|----------|

Chorus: [G2]
E|---------------------|
B|---------------------|
G|---------------------|
D|-4---4-4---4-4-4-4-4-|
A|-4---4-4---4-4-4-4-4-|
E|-2---0-2---0-2-0-2-0-|

Bridge: [G1]
E|------------------|
B|------------------|
G|------------------|
D|------7-----14--16|
A|---/5----/14--14--|
E|------------------|

Bridge: [G2]
E|-------|-------|
B|-------|-------|
G|---7---|---4---|
D|---7---|---4---|
A|---5---|---2---|
E|-------|-------|

Repeat Chorus (without lead)

Repeat Bridge

Interlude: [both guitars]
E|--------------------------------|
B|--------------------------------|
G|------------------------------9-|
D|-4---x-6---x-7---x-9---x-12-0-9-|
A|-4---x-6---x-7---x-9---x-12-0-7-|
E|-2---x-4---x-5---x-7---x-10-0---|

Repeat Verse

Repeat Pre Chorus

Repeat Chorus (with lead)

Repeat Bridge

Repeat Chorus (without lead)

Repeat Bridge

Repeat Interlude

Repeat Bridge

Repeat Chorus (without lead)
Tap to rate this tab
 
# A B C D E F G H I J K L M N O P Q R S T U V W X Y Z