Song name
# A B C D E F G H I J K L M N O P Q R S T U V W X Y Z

Tripping Daisy - Motivation tab

Tripping Daisy - Motivation

Album: I Am An Elastic Firecracker 
Instrument: Guitar
Tuning: eBGDAE

Tabbed By: Matthew Frank


Intro

e||------------|
B||------------|
G||-<5>-----<5>|
D||-----<5>----|
A||------------|
E||------------|


Verse (Acoustic Guitar)

e||------------------|
B||------------------|
G||-----------------0|
D||----3-----3----3--|
A||-------------1----|
E||-3-3--3-1--1------|

e||------------------|
B||------------------|
G||-----------------3|
D||----3-----3----3--|
A||-------------1----|
E||-3-3--3-1--1------|

Lead Guitar Pt. 1

e||--------------------------------------|
B||--------------------------------------|
G||-4h5-(repeat for awhile)--------------|
D||--------------------------7--9---3---0|
A||--------------------------------------|
E||--------------------------------------|

Lead Guitar Pt. 2

e||----------------------------------------------------|
B||----------------------------------------------------|
G||-3-----------------------0--------------------------|
D||-------------------------------------2---3-(x3)----5|
A||----------------------------------------------------|
E||----------------------------------------------------|

Prechorus

e||-3-3-3-3-3-3-3-3|
B||-3-3-3-3-3-3-3-3|
G||-0-0-0-0-0-0-0-0|
D||-0-0-0-0-2-2-2-2|
A||-2-2-2-2-3-3-3-3|
E||-3-3-3-3--------|

Chorus

e||-0-0-0-0-0-0-0-0-0-0-0-0-2-2-2-2-2-2-0-0-0-0-0-0--|
B||-1-1-1-1-1-1-1-1-1-1-1-1-3-3-3-3-3-3-2-2-2-2-2-2--|
G||-2-2-2-2-2-2-0-0-0-0-0-0-2-2-2-2-2-2-2-2-2-2-2-2--|
D||-2-2-2-2-2-2-2-2-2-2-2-2-0-0-0-0-0-0-2-2-2-2-2-2--|
A||-0-0-0-0-0-0-3-3-3-3-3-3-------------0-0-0-0-0-0--|
E||--------------------------------------------------|

Interlude

e||-0----2--|
B||-2----3--|
G||-2----2--|
D||-2----0--|
A||-0-------|
E||---------|

Outro Lead Guitar

e||------------------------------------------------------------------------|
B||------------------------------------------------------------------------|
G||------------------------------------------------------------------------|
D||-3-(hold note for a long time)-------------------/5-(until end of song)-|
A||------------------------------------------------------------------------|
E||--------------------------------1-(also hold)---------------------------|
Tap to rate this tab
# A B C D E F G H I J K L M N O P Q R S T U V W X Y Z