Song name
# A B C D E F G H I J K L M N O P Q R S T U V W X Y Z

Tripping Daisy - Trip Along tab

Tripping Daisy - Trip Along

Album: I Am An Elastic Firecracker
Instrument: Guitar
Tuning: eBGDAE

Tabbed By: Matthew Frank

Intro

e||------------------------------------------------------------|
B||------------------------------------------------------------|
G||------0-------------0---------------0---------------0-------|
D||--------0----0--------0----0----------0----0----------0----0|
A||----5------5------5------5-------3-------3-------3-------3--|
E||-3-------------3--------------1---------------2-------------|

e||------------------------------------------------------------|
B||------0------------0----------------------------------------|
G||----------------------------------0---------------0---------|
D||--------0----0--------0----0----------0----0----------0----0|
A||----5------5------5------5-------3-------3-------3-------3--|
E||-3-------------3--------------1---------------2-------------|

Verse

e||------------------------------------------------------------|
B||------0------------0----------------------------------------|
G||----------------------------------0---------------0---------|
D||--------0----0--------0----0----------0----0----------0----0|
A||----5------5------5------5-------3-------3-------3-------3--|
E||-3-------------3--------------1---------------2-------------|

e||------------------------------------------------------------|
B||------------------------------------------------------------|
G||------4-------------5p4-----------0---------------0---------|
D||--------5----5----------5-------------0----0----------0----0|
A||----5------5------5--------5-----3-------3-------3-------3--|
E||-3-------------3--------------1---------------2-------------|


Interlude

e||------------------------------|
B||------------------------------|
G||-4-4-4-4-4-2-2-22-3-3-3-33----|
D||-5-5-5-5-5-3-3-33-4-4-4-44----|
A||-5-5-5-5-5-3-3-33-4-4-4-44----|
E||-3-3-3-3-3-1-1-11-2-2-2-22----|


Chorus

e||-----x-x-x-x------x-x-x-x-----------------|
B||-----x-x-x-x------x-x-x-x-----------------|
G||-4-4-x-x-x-x-4-44-x-x-x-x-7-7-7-7-6-6-6-6-|
D||-5-5-x-x-x-x-5-55-x-x-x-x-8-8-8-8-7-7-7-7-|
A||-5-5-x-x-x-x-5-55-x-x-x-x-8-8-8-8-7-7-7-7-|
E||-3-3-x-x-x-x-3-33-x-x-x-x-6-6-6-6-5-5-5-5-|
Tap to rate this tab
# A B C D E F G H I J K L M N O P Q R S T U V W X Y Z