Song name
# A B C D E F G H I J K L M N O P Q R S T U V W X Y Z

Trivium - Watch The World Burn tab

Band:  Trivium
Song:  Watch The World Burn
Album: In Waves

Tuning: Drop C# (C#, G#, C#, F#, A#, D#)
(Tune all strings down half a step then drop tune)


I decided to post this tab because it hadn't been posted in ages and
some of the other version, no offense, were wrong in places.

99% sure this is all correct, any suggestions, corrections and typos
Be sure to let me know.

Please rate guys

Hammer on:        h
Pull off:         p
Slide up:         /
Slide down:       \
Vibrato:          ~~~
Bend up:          BU(?)
Muted Note:       x 
Tapped Note:      T
Palm mute:        PM
Natural Harmonic: NH

Guitar 1: Matt Heafy
Guitar 2: Corey Beaulieu

Intro/Chorus
Both guitars
|-----------------------------------------------|
|-----------------------------------------------|
|-----------------------------------------------|
|-----------------------------------------------|
|----------------------------------10-----------|
|--15-12-0-15-12-0-15-12-0-15-12-0----12-10-12\-|

guitar 1
|---------------------------------|
|---------------------------------|
|---------------------------------|
|---------------------------------|
|-----8-8-8-8---8-5-5-5-5-5-5-5-5-|
|-----8-8-8-8---8-5-5-5-5-5-5-5-5-|

Both guitars
|-----------------------------------------------|
|-----------------------------------------------|
|-----------------------------------------------|
|-----------------------------------------------|
|----------------------------------10-----------|
|--15-12-0-15-12-0-15-12-0-15-12-0----12-10-12\-|

Guitar 1
|-----------------------------------------|
|-----------------------------------------|
|-----------------------------------------|
|-----------------------------------------|
|-----8-8-8-8---8-10-10-10-10-------------|
|-----8-8-8-8---8-10-10-10-10-14-14-14-14-|


Verse
Both guitars
||---------------------------------|
|o-3-------------------------------|
||-2-------------------------------|
||-0-------------------------------|
|o-0-------------------------------|
||-0-------------------------------|

|---------------------------------||
|---------------------------------o|
|---------------------------------||
|-3-------------------------------||
|-3-------------------------------o|
|-3-------------------------------||

Both guitars
|---------------------------------------------------------------------|
|---------------------------------------------------------------------|
|---------------------------------------------------------------------|
|-0----------------0----------------3----------------3----------------|
|-0----------------0----------------3----------------3----------------|
|-0-0-0-0-0-0-0000-0-0-0-0-00000000-3-3-3-3-3-3-3333-3-3-3-3-33333333-|
    PM------------   PM------------   PM------------   PM------------

|---------------------------------------------------------------------|
|---------------------------------------------------------------------|
|---------------------------------------------------------------------|
|-0----------------0----------------3----------------3--------------8-|
|-0----------------0----------------3----------------3-------7-7-7-78-|
|-0-0-0-0-0-0-0000-0-0-0-0-00000000-3-3-3-3-3-3-3333-3-3-3-3-7-7-7-78-|
    PM------------   PM------------   PM------------   PM------------

Pre-chorus
Both guitars
|--------------------|-----------------|-----------------|-----------------|
|--------------------|-----------------|-----------------|-----------------|
|--------------------|-----------------|-----------------|-----------------|
|-----12---10------5-|-----8---7-----0-|---------------0-|---------------8-|
|---------------12-5-|-------------8-0-|---7h8---3h7---0-|---7h8---3h7---8-|
|---8----8----8----5-|---5---5---5---0-|-------0-----0-0-|-------0-----0-8-|

|--------------------|-----------------|-----------------|-----------------|
|--------------------|-----------------|-----------------|-----------------|
|--------------------|-----------------|-----------------|-----------------|
|-----12---10------5-|-----8---7-----0-|---------------0-|---------------8-|
|---------------12-5-|-------------8-0-|---7h8---3h7---0-|---7h8---3h7---8-|
|---8----8----8----5-|---5---5---5---0-|-------0-----0-0-|-------0-----0-8-|

Guitar 1
|--------------------|-----------------|-----------------|-----------------|
|--------------------|-----------------|-----------------|-----------------|
|--------------------|-----------------|-----------------|-----------------|
|-----12---10------5-|-----8---7-----0-|---------------0-|---------------8-|
|---------------12-5-|-------------8-0-|---7h8---3h7---0-|---7h8---3h7---8-|
|---8----8----8----5-|---5---5---5---0-|-------0-----0-0-|-------0-----0-8-|

Guitar 2
|-------------------|-----------------|-----------------|-----------------|
|-------------------|-----------------|-----------------|-----------------|
|-----10---9--------|-----7---5-------|-----------------|-----------------|
|--------------10-5-|-------------7-0-|---------------0-|---------------8-|
|-----------------5-|---------------0-|---7h8---3h7---0-|---7h8---3h7---8-|
|---8----8---8----5-|---5---5---5---0-|-------0-----0-0-|-------0-----0-8-|

Guitar 1
|--------------------|-----------------|-----------------|-----------------|
|--------------------|-----------------|-----------------|-----------------|
|--------------------|-----------------|-----------------|-----------------|
|-----12---10------5-|-----8---7-----3-|-----7---5-------|-----------------|
|---------------12-5-|-------------8-3-|-------------7---|-7-7-7-7-7\------|
|---8----8----8----5-|---5---5---5---3-|---3---3---3---3-|-7-7-7-7-7\------|

Guitar 2
|-------------------|-----------------|-----------------|-----------------|
|-------------------|-----------------|-----------------|-----------------|
|-----10---9--------|-----7---5-------|-----5---3-------|-----------------|
|-----------------5-|-------------7-3-|-------------5---|-----------------|
|--------------10-5-|---------------3-|-----------------|-7-7-7-7-7\------|
|---8----8---8----5-|---5---5---5---3-|---3---3---3---3-|-7-7-7-7-7\------|


Repeat Intro/Chorus


Repeat Verse


Repeat Pre-chorus


Repeat Chorus


Breakdown
Both guitars
|-----------------------------------------------------------------|
|-----------------------------------------------------------------|
|-----------------------------------------------------------------|
|-----------------------------------------------------------------|
|-5-----5-----5-----5-----5-----5-----5-----5---------------------|
|---7p0---8p0---7p0---8p0---7p0---8p0---7p0---8p0-8p5-0-7p3-0-5h7-|

|-----------------------------------------------------------------|
|-----------------------------------------------------------------|
|-----------------------------------------------------------------|
|-----------------------------------------------------------------|
|-5-----5-----5-----5-----5-----5-----5-----5---------------------|
|---7p0---8p0---7p0---8p0---7p0---8p0---7p0---8p0-8p5-0-7p3-0-5h7-|

  NH
|-----------------------------------------------------------------|
|-----------------------------------------------------------------|
|-----------------------------------------------------------------|
|-----------------------------------------------------------------|
|-5-----5-----5-----5-----5-----5-----5-----5---------------------|
|---------8p0---7p0---8p0---7p0---8p0---7p0---8p0-8p5-0-7p3-0-5h7-|

|-----------------------------------------------------------------|
|-----------------------------------------------------------------|
|-----------------------------------------------------------------|
|-----------------------------------------------------------------|
|-5-----5-----5-----5-----5-----5-----5-----5---------------------|
|---7p0---8p0---7p0---8p0---7p0---8p0---7p0---8p0-8p5-0-7p3-0-5h7-|


Pre-solo
Guitar 1
|---------------------------------|
|---------------------------------|
|---------------------------------|
|-0-0-0-0-0-0-0-0-0-0-0-0-0-0-0-0-|
|-0-0-0-0-0-0-0-0-0-0-0-0-0-0-0-0-|
|-0-0-0-0-0-0-0-0-0-0-0-0-0-0-0-0-|

Guitar 2
|-------------------------------------------------|
|-------------------------------------------------|
|-10-10-10-10-10-10-10-10-12-12-12-12-14-14-14-14-|
|-------------------------------------------------|
|--8--8--8--8--8--8--8--8-10-10-10-10-12-12-12-12-|
|-------------------------------------------------|

Guitar 1
|---------------------------------|
|---------------------------------|
|---------------------------------|
|-3-3-3-3-3-3-3-3-3-3-3-3-3-3-3-3-|
|-3-3-3-3-3-3-3-3-3-3-3-3-3-3-3-3-|
|-3-3-3-3-3-3-3-3-3-3-3-3-3-3-3-3-|

Guitar 2
|-------------------------17-13-------------------|
|-------------------18-17-------17----------------|
|-17-14----14-17-14----------------14-17-14----14-|
|-------15----------------------------------15----|
|-------------------------------------------------|
|-------------------------------------------------|

Guitar 1
|---------------------------------|
|---------------------------------|
|---------------------------------|
|-3-3-3-3-3-3-3-3-3-3-3-3-3-3-3-3-|
|-3-3-3-3-3-3-3-3-3-3-3-3-3-3-3-3-|
|-3-3-3-3-3-3-3-3-3-3-3-3-3-3-3-3-|

Guitar 2
|-------------------17/20\17-13-------------------|
|-------------------------------17----------------|
|-17-14----14-17-14----------------14-17-14----14-|
|-------15----------------------------------15----|
|-------------------------------------------------|
|-------------------------------------------------|

Guitar 1
|---------------------------------|
|---------------------------------|
|---------------------------------|
|-5-5-5-5-5-5-5-5-5-5-5-5-5-5-5-5-|
|-3-3-3-3-3-3-3-3-3-3-3-3-3-3-3-3-|
|---------------------------------|

Guitar 2
|----------------20---15---17---|
|------17---18------------------|
|-17----------------------------|
|-------------------------------|
|-------------------------------|
|-------------------------------|

Solo (MKH)
Guitar 1
|-----------------------------------------------------------------|
|-----------------------------------------------------------------|
|-----------------------------------------------------------------|
|-----------------------------------------------------------------|
|-/8~~~~~~-----8~~~--8~~~--8~~~------/8---7---8--10---8---7---8---|
|-----------------------------------------------------------------|
|
|Harmony
|-----------------------------------------------------------------|
|-----------------------------------------------------------------|
|-----------------------------------------------------------------|
|-/7~~~~~~-----7~~~--7~~~--7~~~------/7---5---7---8---7---5---7---|
|-----------------------------------------------------------------|
|-----------------------------------------------------------------|

Guitar 1
|-----------------------------------------------------------------|
|-----------------------------------------------------------------|
|-/10~~~~~----10~~~-10~~~-10~~~-----/10---9--10---9tr10-----------|
|-------------------------------------------------------10~~~~----|
|-----------------------------------------------------------------|
|-----------------------------------------------------------------|
|
|Harmony
|-----------------------------------------------------------------|
|-/10~~~~~----10~~~-10~~~-10~~~-----/10---8--10---8tr10-----------|
|-------------------------------------------------------9~~~~~----|
|-----------------------------------------------------------------|
|-----------------------------------------------------------------|
|-----------------------------------------------------------------|

|-13p10--10-------------------------------------------|
|------13--13p10-13p10--10----------------------------|
|---------------------12--12p10-12p10--10-------------|
|------------------------------------12--12p10-12~~---|
|-----------------------------------------------------|
|-----------------------------------------------------|

|-10~~~~~~~----10-12-12BU(13)~~-10h12p10--------------|
|-13BU(15)~------------------------------13BU(15)~~~--|
|-----------------------------------------------------|
|-----------------------------------------------------|
|-----------------------------------------------------|
|-----------------------------------------------------|

|-17p13--13-------------------------------------------|
|------17--17p13-17p13--13----------------------------|
|---------------------15--15p14-15p14--14-------------|
|------------------------------------15--15p14-15~~~--|
|-----------------------------------------------------|
|-----------------------------------------------------|

|-/13---12---13---12BU(13)(12)-----|----------------|
|-------------------------------13-|-BU(15)~~~~~~---|
|----------------------------------|----------------|
|----------------------------------|----------------|
|----------------------------------|----------------|
|----------------------------------|----------------|
|
|Harmony
|-/12---10---12---10BU(12)(10)-----|----------------|
|-------------------------------10-|-BU(12)~~~~~~---|
|----------------------------------|----------------|
|----------------------------------|----------------|
|----------------------------------|----------------|
|----------------------------------|----------------|

Solo rhythm
Guitar 2
|-----------------------------------------------------------------|
|-----------------------------------------------------------------|
|-----------------------------------------------------------------|
|-----------------------------------------------------------------|
|-5-----5-----5-----5-----5-----5-----5-----5---------------------|
|---7p0---8p0---7p0---8p0---7p0---8p0---7p0---8p0-8p5-0-7p3-0-5h7-|

|-----------------------------------------------------------------|
|-----------------------------------------------------------------|
|-----------------------------------------------------------------|
|-----------------------------------------------------------------|
|-5-----5-----5-----5-----5-----5-----5-----5---------------------|
|---7p0---8p0---7p0---8p0---7p0---8p0---7p0---8p0-8p5-0-7p3-0-5h7-|

  NH
|-----------------------------------------------------------------|
|-----------------------------------------------------------------|
|-----------------------------------------------------------------|
|-----------------------------------------------------------------|
|-5-----5-----5-----5-----5-----5-----5-----5---------------------|
|---------8p0---7p0---8p0---7p0---8p0---7p0---8p0-8p5-0-7p3-0-5h7-|

|-----------------------------------------------------------------|
|-----------------------------------------------------------------|
|-----------------------------------------------------------------|
|---------------------------------------------------------------8-|
|-5-----5-----5-----5-----5-----5-----5-----5-------------------8-|
|---7p0---8p0---7p0---8p0---7p0---8p0---7p0---8p0---------------8-|


Repeat Pre-chorus


Repeat Chorus


Outro
Both guitars
|-------------------------------|
|-------------------------------|
|-------------------------------|
|-------------------------------|
|-------0--------0--10----------|
|-0-0-0-0--0-0-0-0-----12-10-12-|

|-------------------------------|
|-------------------------------|
|-------------------------------|
|-------------------------------|
|-------0--------0--10----------|
|-0-0-0-0--0-0-0-0-----12-10-12-|

|-------------------------------|
|-------------------------------|
|-------------------------------|
|-------------------------------|
|-------0--------0--10----------|
|-0-0-0-0--0-0-0-0-----12-10-12-|

|-----------------------------------------|
|-----------------------------------------|
|-----------------------------------------|
|-----------------------------------------|
|-----------------------------------------|
|-8-8-8-8-8-8-8-8-10-10-10-10-14-14-14-14-|

Guitar 1
||-------------------------------|
|o-------------------------------|
||-------------------------------|
||-------------------------------|
|o-------0--------0--10----------|
||-0-0-0-0--0-0-0-0-----12-10-12-|

|-------------------------------|
|-------------------------------|
|-------------------------------|
|-------------------------------|
|-------0--------0--10----------|
|-0-0-0-0--0-0-0-0-----12-10-12-|

|-------------------------------|
|-------------------------------|
|-------------------------------|
|-------------------------------|
|-------0--------0--10----------|
|-0-0-0-0--0-0-0-0-----12-10-12-|

|-----------------------------------------||
|-----------------------------------------o|
|-----------------------------------------||
|-----------------------------------------||
|-----------------------------------------o|
|-8-8-8-8-8-8-8-8-10-10-10-10-14-14-14-14-||

Guitar 2
||---------------------------------------|
||---------------------------------------|
|o-11-11-11-11--11-11-11-11--14-14-14-14-|
||---------------------------------------|
|o--9--9--9--9---9--9--9--9--11-11-11-11-|
||---------------------------------------|

|-----------------------------------|
|-----------------------------------|
|-11-11-11-11--11-11-11-11--5-5-5-5-|
|-----------------------------------|
|--9--9--9--9---9--9--9--9--3-3-3-3-|
|-----------------------------------|

|---------------------------------------|
|---------------------------------------|
|-11-11-11-11--11-11-11-11--14-14-14-14-|
|---------------------------------------|
|--9--9--9--9---9--9--9--9--11-11-11-11-|
|---------------------------------------|

|-----------------------------------------||
|-----------------------------------------o|
|-----------------------------------------||
|-----------------------------------------||
|-----------------------------------------o|
|-8-8-8-8-8-8-8-8-10-10-10-10-14-14-14-14-||


Both guitars
|----------------|
|--------3-------|
|--------2-------|
|--------0-------|
|-0-0-0--0-------|
|-0-0-0--0-------|

Please Rate :)
Tap to rate this tab
# A B C D E F G H I J K L M N O P Q R S T U V W X Y Z