Song name
# A B C D E F G H I J K L M N O P Q R S T U V W X Y Z

Trivium - Demon tab

-------------------------------------------------------------------------------
                             Demon - Trivium
-------------------------------------------------------------------------------
Tabbed by: Martinoob
E-mail: Martin1990991@gmx.de

Tuning: EADGBE



palm muting is easy to figure out  



guitar 1 

|---------------------------------------|
|---------------------------------------|
|---------------------------------------|
|-2-------------------------------(2)---|    x9
|-2-------------------------------(2)---|
|-0-------------------------------(0)---|

guitar 2 

|---------------------------------------|
|---------------------------------------|
|---------------------------------------|
|-2-------------------------------------| x3
|-2-------/----9----\----8----\----5----|
|-0-------/----7----\----6----\----3----|

|---------------------------------------|
|---------------------------------------|
|---------------------------------------|
|-2-------------------------------------| 
|-2-------/----9----\----8---9---9-9-8--|
|-0-------/----7----\----6---7---7-7-6--|

|---------------------------------------|
|---------------------------------------|
|---------------------------------------|
|-2-------------------------------------| x4
|-2-------/----9----\----8----\----5----|
|-0-------/----7----\----6----\----3----|

|---------------------------------------|
|---------------------------------------|
|---------------------------------------|
|-2-------------------------------(2)---|
|-2-------------------------------(2)---|
|-0-------------------------------(0)---|






guitar 1

|-----------------------------|
|-----------------------------|
|-----------------------------|
|-2---------------------------|
|-2---/7--6----------------1--|
|-0-----------6--7--2--3------|

guitar 2 

|-----------------------------|
|-----------------------------|
|-----------------------------|
|-2--------------------(2)-1--|
|-2--------------------(2)----|
|-0--------------------(0)----|




guitar 1

|-------------------------------------|
|-------------------------------------|
|-------------------------------------|
|-2-----------------------------------|
|-2---/7--6---------4--5--8--7--5--4--|
|-0-----------6--7--2--3--6--5--3--2--|

guitar 2 

|-------------------------------------|
|-------------------------------------|
|-------------------------------------|
|-2-----------------------------------|
|-2-----------------4--5--8--7--5--4--|
|-0-----------------2--3--6--5--3--2--|





both guitars  2x

|-----------------------------|       
|-----------------------------|      
|-----------------------------|
|-2---------------------------|
|-2---/7--6----------------1--|
|-0-----------6--7--2--3------|
                                       
|--------------------------------|      
|--------------------------------|
|--------------------------------|
|-2------------------------------|      
|-2---/7--6----------------------|
|-0-----------6--7--2-3-6-5-3-2--|





guitar 1

|-----------------------------|       
|-----------------------------|      
|-----------------------------|
|-2---------------------------|
|-2---/7--6----------------1--|
|-0-----------6--7--2--3------|

guitar 2

|---------------------------------|       
|---------------------------------|      
|---------------------------------|
|-2-------------------------------|
|-2---/7--6--/10-9--12--10--9--7--|
|-0-------------------------------|





guitar 1 

|--------------------------------|
|--------------------------------|
|--------------------------------|
|-2------------------------------|
|-2----7--6----------------------|
|-0-----------6--7--2-3-6-5-3-2--|


guitar 2 

|--------------------------------|
|--------------------------------|
|--------------------------------|
|-2------------------------------|
|-2----7--6----------------------|
|-0-----------6--7--2-3-6-5-3-2--|




guitar 1 

|-----------------------------|       
|-----------------------------|      
|-----------------------------|
|-2---------------------------|
|-2---/7--6----------------1--|
|-0-----------6--7--2--3------|


guitar 2 

|-----------------------------|
|-----------------------------|
|-----------------------------|
|-2---/5--4-------------------|
|-2-----------6--7---------5--|
|-0-----------------6--7------|




guitar 1 

|--------------------------------|       
|--------------------------------|      
|--------------------------------|
|-2------------------------------|
|-2---/7--6----------------------|
|-0-----------6--7--2-3-6-5-3-2--|


guitar 2 

|--------------------------------|
|--------------------------------|
|--------------------------------|
|-2---/5--4----------------------|
|-2-----------6--7---------------|
|-0-----------------6-7-10-9-7-6-|





both guitars    4x

|----------------------------------------------------------|
|----------------------------------------------------------|
|----------------------------------------------------------|
|--------9-\-8---------------------------------------------|
|--------7-\-6---------8-/-9---------4-/-5---5-\-4---4-/-5-|
|-0-0-0---------0-0-0--6-/-7--0-0-0--2-/-3---3-\-2---2-/-3-|


|----------------------------------------------------------|
|----------------------------------------------------------|
|----------------------------------------------------------|
|--------9-\-8---------------------------------------------|    
|--------7-\-6---------8-/-9---4------5-------------4---1--|
|-0-0-0---------0-0-0--6-/-7---2------3-------------2---3--|






guitar 1 

|----------------------------------------------------------------|
|----------------------------------------------------------------|
|----------------------------------------------------------------|
|----------------------------------------------------------------|
|----------------------------------------------------------------|
|-2-3-3---3-2-2---2-3-3---3-2-2---2-6-6---6-5-5---5-3-3---3-2-2--|


guitar 2 

|----------------------------------------------------------------|
|----------------------------------------------------------------|
|----------------------------------------------------------------|
|----------------------------------------------------------------|
|---------------------------------------------------------5------|
|-2-3-3---3-2-2---2-3-3---3-2-2---2-6-6---6-5-5---5-3-3----------|
                                                         p.h




both guitars 

|----------------------------------------------------------------|
|----------------------------------------------------------------|
|----------------------------------------------------------------|
|----------------------------------------------------------------|
|----------------------------------4-----5---------------4----1--|
|-2-3-3---3-2-2---2-3-3---3-2-2----2-----3---------------2----3--|





both guitars  2x

|----------------------------------------------------------|
|----------------------------------------------------------|
|----------------------------------------------------------|
|--------9-\-8---------------------------------------------|
|--------7-\-6---------8-/-9---------4-/-5---5-\-4---4-/-5-|
|-0-0-0---------0-0-0--6-/-7--0-0-0--2-/-3---3-\-2---2-/-3-|
                                                                        
                                                                  
|----------------------------------------------------------|
|----------------------------------------------------------|
|----------------------------------------------------------|
|--------9-\-8---------------------------------------------|      
|--------7-\-6---------8-/-9---4------5-------------4---1--|
|-0-0-0---------0-0-0--6-/-7---2------3-------------2---3--|





guitar 1 

|----------------------------------------------------------------|
|----------------------------------------------------------------|
|----------------------------------------------------------------|
|----------------------------------------------------------------|
|----------------------------------------------------------------|
|-2-3-3---3-2-2---2-3-3---3-2-2---2-6-6---6-5-5---5-3-3---3-2-2--|


guitar 2 

|----------------------------------------------------------------|
|----------------------------------------------------------------|
|----------------------------------------------------------------|
|----------------------------------------------------------------|
|---------------------------------------------------------5------|
|-2-3-3---3-2-2---2-3-3---3-2-2---2-6-6---6-5-5---5-3-3----------|
                                                         p.h




guitar 1 

|----------------------------------------------------------------|
|----------------------------------------------------------------|
|----------------------------------------------------------------|
|----------------------------------------------------------------|
|----------------------------------------------------------------|
|-2-3-3---3-2-2---2-3-3---3-2-2---2-6-6---6-5-5---5-3-3---3-2-2--|


guitar 2 

|-------------------------------------------------------------------|
|-------------------------------------------------------------------|
|-------------------------------------------------------------------|
|-------------------------------------------------------------------|
|-------------------------------------------------------------------|
|-2-3-3---3-2-2---2-3-3---3-2-2---2/10-10---10-9-9---9-9-7---7-6-6--|






guitar 1   2x

|----------------------------------------------------------------|
|----------------------------------------------------------------|
|----------------------------------------------------------------|
|----------------------------------------------------------------|    
|----------------------------------------------------------------|
|-2-3-3---3-2-2---2-3-3---3-2-2---2-6-6---6-5-5---5-3-3---3-2-2--|


guitar 2   2x

|-------------------------------------------------------------------|
|-------------------------------------------------------------------|
|-------------------------------------------------------------------|
|-------------------------------------------------------------------|    
|-------------------------------------------------------------------|
|-6-7-7---7-6-6---6-7-7---7-6-6---7/10-10---10-9-9---9-9-7---7-6-6--|







both guitars

|--------------------------------|
|--------------------------------|
|--------------------------------|
|--------------------------------|
|--------------------------------|
|-3-2-0---3-2-0---3-2-0---3-2-0--|






both guitars 2x


|--------------------------------|
|--------------------------------|
|--------------------------------|
|--------9\8-------------8---8---|
|--------7\6-------9-----6---6---|
|-0-0-0-------0-0--7--0----------|


|--------------------------------|
|--------------------------------|
|--------------------------------|
|--------9\8-------------8---8---|
|--------7\6-------9-----6---6---|
|-0-0-0-------0-0--7--0----------|


|--------------------------------|
|--------------------------------|
|--------------------------------|
|--------9\8-------------8---8---|
|--------7\6-------9-----6---6---|
|-0-0-0-------0-0--7--0----------|

|--------------------------------|
|--------------------------------|
|--------------------------------|
|--------------------------------|      
|--------------------------------|
|-3-2-0---3-2-0---3-2-0---0-2-3--|





drum solo





both guitars  2x

|----------------------------------------------------------|
|----------------------------------------------------------|
|----------------------------------------------------------|
|--------9-\-8---------------------------------------------|
|--------7-\-6---------8-/-9---------4-/-5---5-\-4---4-/-5-|
|-0-0-0---------0-0-0--6-/-7--0-0-0--2-/-3---3-\-2---2-/-3-|
                                                                        
                                                                  
|----------------------------------------------------------|
|----------------------------------------------------------|
|----------------------------------------------------------|
|--------9-\-8---------------------------------------------|      
|--------7-\-6---------8-/-9---4------5-------------4---1--|
|-0-0-0---------0-0-0--6-/-7---2------3-------------2---3--|


|----------------------------------------------------------|
|----------------------------------------------------------|
|----------------------------------------------------------|
|-2--------------------------------------------------(2)---|    
|-2--------------------------------------------------(2)---|
|-0--------------------------------------------------(0)---|


|----------------------------------------------------------|
|----------------------------------------------------------|
|----------------------------------------------------------|
|-8--------------------------------------------------(8)---|    
|-8--------------------------------------------------(8)---|
|-6--------------------------------------------------(6)---|


|----------------------------------------------------------|
|----------------------------------------------------------|
|----------------------------------------------------------|
|-2--------------------------------------------------(2)---|    
|-2--------------------------------------------------(2)---|
|-0--------------------------------------------------(0)---|



|----------------------------------------------------------|
|----------------------------------------------------------|
|----------------------------------------------------------|
|-2--2------2--2-----2------5------7------6------3---------|    
|-2--2------2--2-----2------5------5------4------3---------|
|-0--0------0--0-----0------3------5------4------1---------|






if i have enough time i will tab the solo and solo rythm...





both guitars 3x


|--------------------------------|
|--------------------------------|
|--------------------------------|
|--------9\8-------------8---8---|
|--------7\6-------9-----6---6---|
|-0-0-0-------0-0--7--0----------|


|--------------------------------|
|--------------------------------|
|--------------------------------|
|--------9\8-------------8---8---|
|--------7\6-------9-----6---6---|
|-0-0-0-------0-0--7--0----------|


|--------------------------------|
|--------------------------------|
|--------------------------------|
|--------9\8-------------8---8---|
|--------7\6-------9-----6---6---|
|-0-0-0-------0-0--7--0----------|

|--------------------------------|
|--------------------------------|
|--------------------------------|
|--------------------------------|     
|--------------------------------|
|-3-2-0---3-2-0---3-2-0---0-2-3--|






both guitars 


|--------------------------------|
|--------------------------------|
|--------------------------------|
|--------9\8-------------8---8---|
|--------7\6-------9-----6---6---|
|-0-0-0-------0-0--7--0----------|


|--------------------------------|
|--------------------------------|
|--------------------------------|
|--------9\8-------------8---8---|
|--------7\6-------9-----6---6---|
|-0-0-0-------0-0--7--0----------|


|--------------------------------|
|--------------------------------|
|--------------------------------|
|--------9\8-------------8---8---|
|--------7\6-------9-----6---6---|
|-0-0-0-------0-0--7--0----------|

|-------------------------------------|
|-------------------------------------|
|-------------------------------------|
|-------------------------------------|     
|-------------------------------------|
|-3p2p0-3p2p0-3p2p0-3p2p0-3p2p0-0-2-3-|


|-----------------------------|       
|-----------------------------|      
|-----------------------------|
|-2---------------------------|
|-2---/7--6----------------1--|
|-0-----------6--7--2--3------|
                                       
|--------------------------------|      
|--------------------------------|
|--------------------------------|
|-2------------------------------|      
|-2---/7--6----------------------|
|-0-----------6--7--2-3-6-5-3-2--|





guitar 1

|-----------------------------|       
|-----------------------------|      
|-----------------------------|
|-2---------------------------|
|-2---/7--6----------------1--|
|-0-----------6--7--2--3------|

guitar 2

|---------------------------------|       
|---------------------------------|      
|---------------------------------|
|-2-------------------------------|
|-2---/7--6--/10-9--12--10--9--7--|
|-0-------------------------------|






guitar 1 

|--------------------|       
|--------------------|      
|--------------------|
|-2------------------|
|-2---/7--6----------|
|-0-----------6--7---|


guitar 2 

|-------------------|
|-------------------|
|-------------------|
|-2---/5--4---------|
|-2-----------6--7--|
|-0-----------------|




both guitars 

|----------------------------------------|
|----------------------------------------|
|----------------------------------------|
|-2-----4-----5-----8-----7-----5-----2--|    
|-2-----4-----5-----8-----7-----5-----2--|
|-0-----2-----3-----6-----5-----3-----0--|


|--------------------------------|
|--------------------------------|
|--------------------------------|
|-2----------------------2--2----|    
|-2-----------/6---------2--2----|
|-0-----------/8---------0--0----|

************************************

| /   slide up
| \   slide down
| h   hammer-on
| p   pull-off
| ~   vibrato
| +   harmonic
| x   Mute note
| b   Bend
| pb  Pre-bend
| br  Bend release
| pbr Pre-bend release
| brb Bend release bend
| p.h pinch harmonic

************************************
Tap to rate this tab
# A B C D E F G H I J K L M N O P Q R S T U V W X Y Z