Song name
# A B C D E F G H I J K L M N O P Q R S T U V W X Y Z

Tronic - Melanie tab

Weno es una cancion bastante facil...todos los acordes estan en kinta y tocan solo las 3 
mas graves para que sean riffs.

Intro

e-----------------------------------------------------------|
B-----------------------------------------------------------|
G-7-7-7-6-------7-7-7-----------------7-7-7-9---------------|
D-7-7-7-6---x8)-7-7-7-7------(x4)-----7-7-7-9---------------|
A-5-5-5-4-------5-5-5-7-(x8)----------5-5-5-7---------------|
E---------------------5-------------------------------------|

Aca no estoy seguro de las veces que se tocan los riffs...pero pongan la cancion de 
y se las arreglan :)

2a guitarra en intro
e-5-5-5--4(x8)-2-2-2-0(x8)---5-5-5--4(x8)-7-7-7-0(x8)-5-5-5-7-|
B-------------------------------------------------------------|
G-------------------------------------------------------------|
D-------------------------------------------------------------|
A-------------------------------------------------------------|
E-------------------------------------------------------------|

E                 F#                E         A
Melani esta muy triste...nadie la puede ayudar

E                   F#           E             A
Desde Niņa maltratada por su mama, por su mama (arriba tocan 1 vez y aca ya mas
veces...token con la cancion de fondo para que les ayude)

D       E     A      F#      D       E         A
Melani quiere estar dormida, vivir le hace muy mal

D     E       A                  F#   D     E      A
Nadie puede entender, no es su culpa Dios le dio ese mal

(Y despues es el otro verso y el coro final igual a estos)

D      E       A     D      E          A
Dios le dio ese mal Dios Le dio ese mal


Cualquier correcion, sugerencia, agradecimiento , puteada o lo que quieran...a 
ichis9000@hotmail.com
Tap to rate this tab
 
# A B C D E F G H I J K L M N O P Q R S T U V W X Y Z