Tronic - Veinte Por Ciento tab

weno aki les dejo estas tabs ke estan echas por mi,ya ke no e enkontrados unas ke esten bien
espero ke les sirva (ojala xq estube komo 2 horas pegao ai pa ke saliera bn)


intro:

PRIMERA GUITARRA.

E--------222-----222-------3333333333--2222222222----------------|
B----333-----333-------333---------------------------------------|
G----------------------------------------------------------------|
D----------------------------------------------------------------|
A----------------------------------------------------------------|
E----------------------------------------------------------------|



E--------222-----222-------3333333333-----------------------------|
B----333-----333-------333--------------222222222-----------------|
G-----------------------------------------------------------------|
D-----------------------------------------------------------------|
A-----------------------------------------------------------------|
E-----------------------------------------------------------------|


SEGUNDA GUITARRA LAS NOTAS SON SI - FA# - SOL -RE - LA ...EN QUINTAS



   SI           FA#          SOL           RE             LA
E---------   -----------  ----------   -----------  -----------------|
B---------   -----------  ----------   -----------  -----------------|
G---4-----   -----------  ----------   -----7-----  -----------------|
D---4-----   ----4------  ----5-----   -----7-----  -------7---------|
A---2-----   ----4------  ----5-----   -----5-----  -------7---------|
E---------   ----2------  ----3-----   ------------ -------5---------|



VERSO.
1 GUITARRA


SI(MELODICO)                                 LA#(MELODICO)

SI                                           FA# (ESTO ES LA 2 TARRA)
KE LE PASA A LA AUTORIDAD GASTO MENOS Y PAGO MAS....


SOL                                          RE                        LA

TODO AUMENTA Y YO GANO IGUAL, Y XQ CHILECTRA SUBE UN VEINTE POR CIENTO MAS.


DESPUES SE REPITE LO MISMO, AHI USTEDES KASHAN...

en las notas ke dise melodica,no estoy seguro si asi se llaman pero aki se las dejo komo se hacen.


 SI MELODICO             LA# MELODICO
E----------            --------|
B----------            --------|
G--4-------            ---3----|
D--X-------            ---X----|
A--2-------            ---1----|
E----------            --------|


CORO:


SOL    SI      RE          LA
POR QUE, DEVO KORRER PARA LOGRAR

el resto del coro es lo mismo


SOL    FA#
...SIN PARAR....


en el segundo verso se repite lo mismo ke en el primero
despues de esto viene el segundo koro pero se repite lo mismo ke en el primero


1,2,3 VA!!!

SOLO:

primera guitarra

E-----------------------------------------------------------------------|
B------7-8-7----------7-8-7----8-7-------8-7---------7-8-7-------7-8-7--|
G-7--7-7-----7-7---7-7-----7-7----7-6------67---7-7-----7-7--7-7--------|
D-----------------------------------------------------------------------|
A-----------------------------------------------------------------------|
E-----------------------------------------------------------------------|



E---------------------------------------------------------------------------|
B-------------------------55555555555555555555557---77777777777--7----------|
G--------6666666666666666---------------------------------------------------|
D---------------------------------------------------------------------------|
A---------------------------------------------------------------------------|
E---------------------------------------------------------------------------|


segunda guitarra

son los akordes SOL - RE - LA - SOL - LA# (escuhen la cancion y ahi los acomodan 
segun corresponda)


*tambien son en quintas

HAI TAMBN USTEDES AKOMODAN LOS SLIDES KE VAN escuchen la kancion y se daran kuenta



se repite el coro

SOL-SI-RE-LA-SOL-FA#


FIN


E------2-|
B--333---|
G--------|
D--------|
A--------|
E--------|





ESPERO KE LES SIRVA, KUALKIER DUDA, ARREGLO KE SE LE PUEDA HACER, ALGUNA CRITICA, SAKAR 
O AGREGAR ALGUNA NOTA O SIMPLEMENTE AGRADESER
ESCRIBIR A MI CORREO: KLAHA_MARCHEN_17@HOTMAIL.COM
Tap to rate this tab
 
# A B C D E F G H I J K L M N O P Q R S T U V W X Y Z