Song name
# A B C D E F G H I J K L M N O P Q R S T U V W X Y Z

Tunng - Take tab

Tunng  Take

The twangy bit is on a harpsichord or some such instrument. But if you really wanted, 
you had enough arms, you could play it like this:

e|--14-16-7-------14-16-11---------|
B|--16-17-9-------16-17-12---------|
G|---------------------------------|
D|---------------------------------|
A|---------------------------------|
E|---------------------------------|

Intro:
    C# E G#        C# E  B            C# E  G#       C# E  B
e|--4--7--4--------4--7--7---------|--4--7--4--------4--7--7---------|
B|--5--9--4--------5--9--7---------|--5--9--4--------5--9--7---------|
G|--6--9--5--------6--9--8---------|--6--9--5--------6--9--8---------|
D|--6--9--6--------6--9--9---------|--6--9--6--------6--9--9---------|
A|--4--7--6--------4--7--9---------|--4--7--6--------4--7--9---------|
E|--4--7--4--------4--7--7---------|--4--7--4--------4--7--7---------|
Do that a few times then:
Verse:
e|-4-4-4-4-4-4-4-4-0-0-0-0---------|-4-4-4-4-4-4-4-4-0-0-0-0---------|
B|-5-5-5-5-5-4-5-5-0-0-0-0-4-4-4-4-|-5-5-5-5-5-4-5-5-0-0-0-0-4-4-4-4-|
G|------------------1---1--4-4-4-4-|------------------1---1--4-4-4-4-|
D|--6---6---6---6-2---2-------1-2--|--6---6---6---6-2---2-------1-2--|
A|4---4---4---4-----------2-4------|4---4---4---4-----------2-4------|
E|---------------------------------|---------------------------------|
Do that twice then:

Chorus:                (this part has 2 guitars.)
                       (and a harpsichord or whatever it is.)
Guitar 1:
    C# E  G#       C# E  B            C# E  G#       C# E  B
e|--4--7--4--------4--7--7---------|--4--7--4--------4--7--7---------|
B|--5--9--4--------5--9--7---------|--5--9--4--------5--9--7---------|
G|--6--9--5--------6--9--8---------|--6--9--5--------6--9--8---------|
D|--6--9--6--------6--9--9---------|--6--9--6--------6--9--9---------|
A|--4--7--6--------4--7--9---------|--4--7--6--------4--7--9---------|
E|--4--7--4--------4--7--7---------|--4--7--4--------4--7--7---------|
Guitar 2:
e|-4-4-4-4-4-4-4-4-0-0-0-0---------|-4-4-4-4-4-4-4-4-0-0-0-0---------|
B|-5-5-5-5-5-4-5-5-0-0-0-0-4-4-4-4-|-5-5-5-5-5-4-5-5-0-0-0-0-4-4-4-4-|
G|------------------1---1--4-4-4-4-|------------------1---1--4-4-4-4-|
D|----------------2---2-------1-2--|--6---6---6---6-2---2-------1-2--|
A|4-4-4-4-4-4-4-4---------2-4------|4---4---4---4-----------2-4------|
E|---------------------------------|---------------------------------|


Verse:
e|-4-4-4-4-4-4-4-4-0-0-0-0---------|-4-4-4-4-4-4-4-4-0-0-0-0---------|
B|-5-5-5-5-5-4-5-5-0-0-0-0-4-4-4-4-|-5-5-5-5-5-4-5-5-0-0-0-0-4-4-4-4-|
G|------------------1---1--4-4-4-4-|------------------1---1--4-4-4-4-|
D|--6---6---6---6-2---2-------1-2--|--6---6---6---6-2---2-------1-2--|
A|4---4---4---4-----------2-4------|4---4---4---4-----------2-4------|
E|---------------------------------|---------------------------------|

Chorus:
Guitar 1:
    C# E  G#       C# E  B            C# E  G#       C# E  B
e|--4--7--4--------4--7--7---------|--4--7--4--------4--7--7---------|
B|--5--9--4--------5--9--7---------|--5--9--4--------5--9--7---------|
G|--6--9--5--------6--9--8---------|--6--9--5--------6--9--8---------|
D|--6--9--6--------6--9--9---------|--6--9--6--------6--9--9---------|
A|--4--7--6--------4--7--9---------|--4--7--6--------4--7--9---------|
E|--4--7--4--------4--7--7---------|--4--7--4--------4--7--7---------|
Guitar 2:
e|-4-4-4-4-4-4-4-4-0-0-0-0---------|-4-4-4-4-4-4-4-4-0-0-0-0---------|
B|-5-5-5-5-5-4-5-5-0-0-0-0-4-4-4-4-|-5-5-5-5-5-4-5-5-0-0-0-0-4-4-4-4-|
G|------------------1---1--4-4-4-4-|------------------1---1--4-4-4-4-|
D|----------------2---2-------1-2--|--6---6---6---6-2---2-------1-2--|
A|4-4-4-4-4-4-4-4---------2-4------|4---4---4---4-----------2-4------|
E|---------------------------------|---------------------------------|
This repeats then:

Guitar 1:
    C# E  G#       C# E  B            C# E  G#       C# E  B
e|--4--7--4--------4--7--7---------|--4--7--4--------4--7--7---------|
B|--5--9--4--------5--9--7---------|--5--9--4--------5--9--7---------|
G|--6--9--5--------6--9--8---------|--6--9--5--------6--9--8---------|
D|--6--9--6--------6--9--9---------|--6--9--6--------6--9--9---------|
A|--4--7--6--------4--7--9---------|--4--7--6--------4--7--9---------|
E|--4--7--4--------4--7--7---------|--4--7--4--------4--7--7---------|

*Clapping*

The End.

because i couldn't be bothered to sync the lyrics with the song, here they are:

All eyes ablaze
We saw her in the old light, whoa, in the old light
Seventy years to fly closer to sunlight, whoa, to the sunlight
She sings to the stereo, making dirty pictures with her hands in the lamplight
And knows where the mourners go
We'll sing a coronet, bringing her back from the grey light

Climb through the car of girls
Screaming through the streets, hard at his lungs
And computer listens to everything, whispering asleep if there's a drift from old mall

Years are a trifling thing
Passing in an eye's blink, whoa, in an eye's blink
Forty five years go by in nothing but a day's time, whoa, in a day's time

Take take take take take take

All eyes ablaze
He saw her in the old light, whoa, in the old light
Seventy years to fly closer to the sunlight, whoa, to the sunlight.
Tap to rate this tab
# A B C D E F G H I J K L M N O P Q R S T U V W X Y Z