Song name
# A B C D E F G H I J K L M N O P Q R S T U V W X Y Z

Two Tongues - Come On tab

Intro/ chorus:
e------------000000--------|
b-3-33-33-33-000000--------|
g-2-22-22-22-xxxxxx--------| repeat as needed through out the song
d---------22-222222----20--|
a-2-------00-222222-020--0-|
e---22-33----000000--------|

Verse:
e|-|0|
b|3|0|
g|2|x| just strum one for two measures or two counts of four, and then the
d|-|2| other for the same. Repeat this twice and then switch to chorus.
a|2|2|
e|-|0|

Bridge:

e--------------------------------------------------------------------|
b--------------------------------------------------------------------|
g--------------------------------------------------------------------|
d-----------------------------------------------00000000000022222222-|
a-----------------000000000002222222244444444444444------------------|
e-2222222233333333---------------------------------------------------|

Bridge continued:
---------------------------------------------------------------------|
---------------------------------------------------------------------|
---------------------------------------------------------------------|
444444444445555555555554444444444422222222222000000000000------------|
---------------------------------------------------------22222222222-|
---------------------------------------------------------------------|

The Bridge is something like that I had trouble figuring it out exactly but I know it 
works it's way up the scale and then back down.

If you don't want to tune down just capo on the first fret and play it in relation to 
the capo and it sounds great, mostly.

That's it enjoy.
Tap to rate this tab
 
# A B C D E F G H I J K L M N O P Q R S T U V W X Y Z