Guitaretab - guitar tabs
Song name
# A B C D E F G H I J K L M N O P Q R S T U V W X Y Z

Tyr - The Wild Rover tab

E||-------------------------|--------------------9----|
B||-------------------12----|--12----10----12---------|
G||--11----9----------------|-------------------------|
D||-------------12----------|-------------------------|
A||-------------------------|-------------------------|
D||-------------------------|-------------------------|



-------------------------|------------------------|------------------------|
--12----10---------------|------------------------|------------------------|
--------------11---------|--------12----9----9----|-------------------9----|
--------------------9----|--12--------------------|--12----9----12---------|
-------------------------|------------------------|------------------------|
-------------------------|------------------------|------------------------|



-------------------|--------------------------|--------9----------------|
-------------------|--------12----12----10----|--12---------12----10----|
--12----11----9----|--------------------------|-------------------------|
-------------------|--12----------------------|-------------------------|
-------------------|--------------------------|-------------------------|
-------------------|--------------------------|-------------------------|



-------------------------|-------------------9----|-------------------------|
-------------------------|-------------10---------|--12----10---------------|
--11---------------12----|--9----11---------------|--------------11----9----|
--------9----12----------|------------------------|-------------------------|
-------------------------|------------------------|-------------------------|
-------------------------|------------------------|-------------------------|


                         2x
-------------------------||
-------------------------||
------------------------*||
--12----12----7---------*||
-------------------9--5--||
-------------------------||

2nd guitar intro
                               2x
||----------------------------------|
||----------------------------------|
||----------------------------------|
||-------------------2-2-2-2-2------|
||-----0-0-0-0-0-----0-0-0-0-0------|
||-3-1-0-0-0-0-0--3-5----------3-1--|
  pm..............................



2nd guitar after intro
  1st verse
I've been a Wild Rover for many's the Year..
1st verse
||----------------------|----------------------|----------------------|
||----------------------|----------------------|----------------------|
||----------------------|----------------------|----------------------|
||--7----7----7----7----|--7----7----7----7----|--7-------------------|
||--5----5----5----5----|--5----5----5----5----|--5----5----5----5----|
||----------------------|----------------------|-------5----5----5----|
    pm...........................................................

[ Tab from: http://www.guitaretab.com/t/tyr/179557.html ]
--------------------|-----------------|----------------------|
--------------------|-----------------|----------------------|
--------------------|-----------------|----------------------|
--------------------|-----------------|----------------------|
--5----5----5-------|--0----0----0----|--0----0--------------|
--5----5----5-------|--0----0----0----|--0----0--------------|
pm..............................................


---------------------|----------------------|----------------------|
---------------------|----------------------|----------------------|
---------------------|----------------------|----------------------|
------2----2----2----|--2----2----2----2----|--7----7----7----7----|
------0----0----0----|--0----0----0----0----|--5----5----5----5----|
---------------------|----------------------|----------------------|
pm...............................................................

               2x   Chorus
-----------------||------------------------------------------|
-----------------||------------------------------------------|
-----------------||-6-7-9------------------------9-----------|
--7----7----7----||-4-5-7----7----7----7----7----7----7----7-|
--5----5----5----||------------------------------------------|
-----------------||------------------------------------------|
  pm........................................................


----------------------|----------------------|----------------------|
----------------------|----------------------|----------------------|
------------9---------|-----------------9----|--8----7----6---------|
--7----7----7----7----|--7----7----7----7----|--6----5----4----4----|
----------------------|----------------------|----------------------|
----------------------|----------------------|----------------------|
 pm.............................................................


----------------------|----------------------|----------------------|
----------------------|----------------------|----------------------|
-----------------6----|--4----6----7---------|-----------------7----|
--4----4----4----4----|--2----4----5----5----|--5----5----5----5----|
----------------------|----------------------|----------------------|
----------------------|----------------------|----------------------|
  pm............................................................


----------------------|----------------------|----------------------|
----------------------|----------------------|----------------------|
--6----7----9---------|-----------------9----|--6-------------------|
--4----5----7----7----|--7----7----7----7----|--4----7----4----4----|
----------------------|----------------------|-------5----2----2----|
----------------------|----------------------|----------------------|
 pm..............................................................


----------------------|-----------------||
----------------------|-----------------||
----------------------|-----------------||
--4----4----4----2----|--2----2----2----||
--2----2----2----0----|--0----0----0----||
----------------------|-----------------||
 pm...................................

Related for The Wild Rover tab
Advertisement will be closed in 10 seconds