Song name
# A B C D E F G H I J K L M N O P Q R S T U V W X Y Z

Ufo - Space Child tab

Help us improve GuitareTab! Take a short survey!
E| -10------10-------------------------------------------------|
B| -----12------12--~10----------------------------------------|
G| ----------------------12--11------11---~9-------------------|
D| ------------------------------12----------------------------|   
A| ------------------------------------------------------------|
E| ------------------------------------------------------------|

E| -10------10-------------------------------------------------|
B| -----12------12--~10----------------------------------------|
G| ----------------------12--11------11------~9----------------|
D| ------------------------------12------12--------------------|   
A| ------------------------------------------------------------|
E| ------------------------------------------------------------|
 
That second bit is just a tad faster than the first
Related for Space Child tab