Song name
# A B C D E F G H I J K L M N O P Q R S T U V W X Y Z

Uk Subs - Tomorrows Girls tab

---------------------------------Guitar Tabs--------------------------------
	
   U.K. SUBS : TOMORROW´S GIRLS  

Intro:
e|-------------------------------------------------------------------|
B|----------------0-3--3-0------------------------0-3-3-3-3-0--------|
G|---------0-2--2-0-2--2-0-2--2-0----------0-2--2-0-2-2-2-2-0-2--2-0-|
D|-2-2-2-2-0-2--2-0-0--0-0-2--2-0--2-2-2-2-0-2--2-0-0-0-0-0-0-2--2-0-|
A|-2-2-2-2-0-0--0----------0--0-0--2-2-2-2-0-0--0-------------0--0-0-|
E|-0-0-0-0-------------------------0-0-0-0---------------------------|
PM....................................................................


e|----------------------------------------------------------------------|
B|----------------0-3-3-3-3-0------------------------0-3-3-3-3-0--------|
G|---------0-2--2-0-2-2-2-2-0-2--2-0----------0-2--2-0-2-2-2-2-0-2--2-0-|
D|-2-2-2-2-0-2--2-0-0-0-0-0-0-2--2-0--2-2-2-2-0-2--2-0-0-0-0-0-0-2--2-0-|
A|-2-2-2-2-0-0--0-------------0--0-0--2-2-2-2-0-0--0-------------0--0-0-|
E|-0-0-0-0----------------------------0-0-0-0---------------------------|
PM......................................................................

Verse:
e|-----------------------------------------------------------|
B|-------------0-3--3-0---------------------0-3--3-----------|
G|------0-2--2-0-2--2-0-2--2-0-------0-2--2-0-2--2-0-2--2-0--|
D|-2--2-0-2--2-0-0--0-0-2--2-0--2--2-0-2--2-0-0--0-0-2--2-0--|
A|-2--2-0-0--0----------0--0-0--2--2-0-0--0--------0-0--0-0--|
E|-0--0-------------------------0--0-------------------------|
PM............................................................

e|--------------------------------------------------------------|
B|-------------0-3--3-0---------------------0-3-3-3-3-0---------|
G|------0-2--2-0-2--2-0-2--2-0-------0-2--2-0-2-2-2-2-0-2--2-0--|
D|-2--2-0-2--2-0-0--0-0-2--2-0--2--2-0-2--2-0-0-0-0-0-0-2--2-0--|
A|-2--2-0-0--0----------0--0-0--2--2-0-0--0-------------0--0-0--|
E|-0--0-------------------------0--0----------------------------|
PM...............................................................

Chorus:
e|-0------0------2------0------0------0------2------0-----|
B|-0------2------3------0------0------2------3------0-----|
G|-1------2------2------1------1------2------2------1-----|
D|-2------2------0------2------2------2------0------2-----|
A|-2------0-------------2------2------0-------------2-----|
E|-0--------------------0------0--------------------0-----|

Bridge:
e|------------------------------------|
B|------------------------------------|
G|-9-9-9-9-9-9-9-9-9-9-9-9--7-7--5-5--|
D|-9-9-9-9-9-9-9-9-9-9-9-9--7-7--5-5--|
A|-7-7-7-7-7-7-7-7-7-7-7-7--5-5--3-3--|3x
E|------------------------------------|
PM.....................................

e|-----------------------------------|
B|-----------------------------------|
G|-9-9-9-9-9-9-9-9-9-9-9-9-9-9-9-9---|
D|-9-9-9-9-9-9-9-9-9-9-9-9-9-9-9-9---|
A|-7-7-7-7-7-7-7-7-7-7-7-7-7-7-7-7---|
E|-----------------------------------|
PM...................................

Outro:
e|-------------------------------------------------------------------------|
B|-------------------------------------------------------------------------|
G|-9-9-9-9-9-9-9-9-9-9-9-9--7-7--5-5--9-9-9-9-9-9-9-9-9-9-9-9--9--9--9--7--|
D|-9-9-9-9-9-9-9-9-9-9-9-9--7-7--5-5--9-9-9-9-9-9-9-9-9-9-9-9--9--9--9--7--|
A|-7-7-7-7-7-7-7-7-7-7-7-7--5-5--3-3--7-7-7-7-7-7-7-7-7-7-7-7--7--7--7--5--|
E|-------------------------------------------------------------------------|
PM.........................................................................

Song =
Intro
Verse x2
Chorus
Verse x2
Chorus
Bridge
Verse x2
Chorus
Outro
----------------------------------------------------------------------------

lyric:

Well I got a little girl, she only lives down the street
And she’s got a little something, it’s gonna knock you off your feet.
Well I said I wanna buy some and she told me that I could,
Said first you better try some, ‘cos it may not do you good.

Well I feel a lot better than I did before.
A whole lot better when I’m out on the floor.
Feel so good, I don’t know when,
Look out girl, here it comes again.

Well Tomorrow’s Girl, she ain’t pre-programmed,
‘Cause you took a liberation that she won’t understand
And she ain’t preconditioned, like some android slave.
Well Tomorrow’s Girl, there’s a sign for change

Well I feel a lot better than I did before.
A whole lot better when I’m out on the floor.
Feel so good, I don’t know when,
Look out girl, here it comes again.

Well Tomorrow’s Girl, she ain’t no factory girl
And she don’t wanna live in a nine to five world.
You’re out there slaving on your factory floor,
Well Tomorrow’s Girl, she wants a lot more.

Well I feel a lot better than I did before.
A whole lot better when I’m out on the floor.
Feel so good, I don’t know when,
Look out girl, here it comes again. 

Tap to rate this tab
 
# A B C D E F G H I J K L M N O P Q R S T U V W X Y Z