Song name
# A B C D E F G H I J K L M N O P Q R S T U V W X Y Z

United Live - This Is My Desire tab

Help us improve GuitareTab! Take a short survey!
This Is My Desire

artist: United Live
tuning: Standard
Tabbed by Ferdinand Bato
friendster: tobatits_0405@yahoo.com

intro:

    C      Cadd9               Bm     Em
e|-------------------------------------------|
B|--------7-8-7-8-7------------------7-8~----|
G|--9~~-9-----------7----------7~--9---------|
D|--------------------7~---7-9---------------|
A|-------------------------------------------|
E|-------------------------------------------|

   C       Cadd9               Bm     Em
e|-------------------------------------------|
B|--------7-8-7-8-7------------------7-8~----|
G|--9~~-9-----------7----------7~--9---------|
D|--------------------7~---7-9---------------|
A|-------------------------------------------|
E|-------------------------------------------|


Related for This Is My Desire tab