Song name
# A B C D E F G H I J K L M N O P Q R S T U V W X Y Z

Unwritten Law - Seeing Red tab

OK.This is 100% correct because i was at home all day
figuring this out.Even the harmonics are correct you
can listen to the song and play it and you could tell 
that its correct.So here it goes! oh ya tune half step down.
< > = harmonic
x = pal mute
intro:guitar 1 clean 2x
e-------------------------------------------------------------------------------------
b-------------------------------------------------------------------------------------
g----0-----0--0---0----0--0----0-----0--0-----0----0---0---0----0---0---0----0--0-----
d---4-4-----4--4---4----4----4--4-----4-----4--4-----4---4--4----4----4--4----4-------
a-3-----3----------------------3-----3---------------2-------3----3-------------------
E----------------3-----3------------------------0-----------------------------3----3--
4x
e---------------------------------
b---------------------------------
g----0----------------------------
d---4-4---------------------------
a--5------------------------------
E---------------------------------
chorus:guitar 1&2  2x
e--------------------------------------------------------------------------------------
b----------------------------------------------------------------------------<5>-------
g--5--555--------------<5>---------------------------5--555-X--XXXX-----<5>------------
d--5--555-X--XXX--<5>--5555555555555----5--555-X--XXXX----------2222222----------------
a--3--333-X--XXX---------5555555555555----3--333-X--XXXX----------2222222--------------
E-------------------------------333330033003333--------------------------------0000000-

e-----------------------------------------------------------------------
b-----------------------------------------------------------------------
g--7777--9999--55555555555-------------------------------77777777777777-
d--xxxx---xxxx---55555555555-5555555555555555--xxxxxxxxxxxxxxxx---------
a--5555--7777--33333333333-5555555555555555--5555555555555--------------
E----------------------------------------3333330033003333---------------

e-----------------
b-----------------
g--11-~~--14------
d--x--~~----x-----
a--9-~~----12-----
E-----------------
solo
e-----------------------------------------------------------------------------------------------------------
b-------7-8-------------7-8-------------7-8---------------7-8-7----------7-8-----------7-8-------7----------
g--7-0-----7-0---7-0------7-0---7-0------7-0----9------------9--7-0-----7-0--7-0-----7-0--7-ring------------
d----------------------------------------------------------9----------------------------------------------5-
a-----------------------------------------------------------------------------------------------------------
outro:
e------------------------------2---------
b------1-----------3----3----3--let ring-
g----0--0--0----0--0-------2-------------
d---2-----2-----0----0-------------------
a--3-------------------------------------
E---------------3------------------------
By:Nowell
Tap to rate this tab
# A B C D E F G H I J K L M N O P Q R S T U V W X Y Z