Song name
# A B C D E F G H I J K L M N O P Q R S T U V W X Y Z

Unwritten Law - How You Feel tab

I'm positive this is correct, because these are actual chords. . .not just some
lame bar chords that don't sound precise.


[Standard Tuning]

INTRO & VERSE:

          C           A        E          G7

E|--------0-----------0--------0----------1-----|
B|--------1-----------1--------0----------0-----|
G|--------0-----------2--------0----------0-----|
D|--------2-----------2--------2----------0-----|
A|---3-3--3-----0-0---0--------2----------2-----|
E|------------------------0-0-------3-3----3----|


The rhythm and plucking is self-explanatory.
Play the verse exactly like this.


CHORUS:

    C   E7  Am   E7  G7
E|--0---0---0----0---1-----|
B|--1---0---1----0---0-----|
G|--0---0---2----0---0-----|
D|--2---2---2----2---0-----|
A|--3---2---0----2---2-----|
E|--------------------3----|


C
I've got one life to live in

E7
So won't you stop and listen

Am	       E7
Can't keep my head from spinnin'

G7
All around you


"But I'm frustrated, so frustrated now. . ."

E|-0--0--0--1--|
B|-1--0--1--0--|
G|-2--0--2--0--|
D|-2--2--2--0--|
A|-0--2--0--2--|
E|----0-----3--|

Right after that part with the strumming and plucking:

E|-------0-------2--------1------------|
B|-------1-------1---------0-----------|
G|-------0-------2---------------------|
D|-------2--0-0---------0--------------|
A|--3-3--3------------2-----------0-2--|
E|------------------3----------3-3-----|

Right after that (above) it continues with the normal strumming
and plucking. . .

E|------0-------0-------0-------1---|
B|------1-------1-------0-------0---|
G|------0-------2-------0-------0---|
D|------2-------2-------2-------0---|
A|-3-3--3--0-0--0-------2-------2---|
E|-----------------0-0-----3-3--3---|
Tap to rate this tab
# A B C D E F G H I J K L M N O P Q R S T U V W X Y Z