Guitaretab - guitar tabs
Song name
# A B C D E F G H I J K L M N O P Q R S T U V W X Y Z

Used - Just A Little tab

                           The USsed Just A Little

I Doubt it's 100% but its pretty Close
Enjoy

Dan

Intro
e|-----|    e|-----|
B|-----|    B|-----|
G|-14--|    G|-8---|
D|--x--|x15 D|--x--| x5
A|-12--|    A|-10--|
D|-----|    D|-----|       << Repeat this 4 times


Pre-Chorus
e|----------------------------0~~~~|
B|----------------------------0~~~~|
G|-----------3-3-3------------3~~~~|
D|-3-2-0-3---3-3-3--3-2-0-3---3~~~~| x2
A|-3-2-0-3---1-1-1--3-2-0-3---1~~~~|
D|-3-2-0-3----------3-2-0-3--------|

 Chorus  x4
e|----|
B|----|
G|-10-| 
D|--x-| x10
A|--8-|
D|----|

e|----------------------------------|
B|----------------------------------|
G|--15-15-15-15-15---14-14-14-14-14-|
D|--x--x--x--x--x----x--x--x--x--x--|
A|--13-13-13-13-13---12-12-12-12-12-|
D|--0--0--0--0--0----0--0--0--0--0--|

Verse

e|-----|    e|-----|
B|-----|    B|-----|
G|-14--|    G|-8---|
D|--x--|x15 D|--x--| x5
A|-12--|    A|-10--|
D|-----|    D|-----|       << Repeat this 4 times

Pre-Chorus
e|----------------------------0~~~~|
B|----------------------------0~~~~|
G|-----------3-3-3------------3~~~~|
D|-3-2-0-3---3-3-3--3-2-0-3---3~~~~| x2
A|-3-2-0-3---1-1-1--3-2-0-3---1~~~~|
D|-3-2-0-3----------3-2-0-3--------|

 Chorus  x4
e|----|
B|----|
G|-10-| 
D|--x-| x10
A|--8-|
D|----|
[ Tab from: http://www.guitaretab.com/u/used/130575.html ]
e|----------------------------------|
B|----------------------------------|
G|--15-15-15-15-15---14-14-14-14-14-|
D|--x--x--x--x--x----x--x--x--x--x--|
A|--13-13-13-13-13---12-12-12-12-12-|
D|--0--0--0--0--0----0--0--0--0--0--|

Pre-Bridge

e|-------------xx-------------xx-------------xx-----------|
B|-------------xx-------------xx-------------xx-----------|
G|-14-14-14-14-xx-14-14-14-14-xx-14-14-14-14-xx-14-14-14--|
D|--x--x--x--x-xx--x--x--x--x-xx-x--x--x--x--xx-x--x--x---| x4
A|-12-12-12-12-xx-12-12-12-12-xx-12-12-12-12-xx-12-12-12--|
D|-------------xx-------------xx-------------xx-----------|   Hard down strums on the last 3
   Won               Der            Full        Aghhaalll

Bridge

e|--------------|
B|--------------|
G|------14------|
D|--------------| x16 ...Go.
A|---12----12---|
D|-0------------|


Pre-Chorus
e|----------------------------0~~~~|
B|----------------------------0~~~~|
G|-----------3-3-3------------3~~~~|
D|-3-2-0-3---3-3-3--3-2-0-3---3~~~~| x3
A|-3-2-0-3---1-1-1--3-2-0-3---1~~~~|
D|-3-2-0-3----------3-2-0-3--------|

 Chorus  x4
e|----|
B|----|
G|-10-| 
D|--x-| x10
A|--8-|
D|----|

e|----------------------------------|
B|----------------------------------|
G|--15-15-15-15-15---14-14-14-14-14-|
D|--x--x--x--x--x----x--x--x--x--x--|
A|--13-13-13-13-13---12-12-12-12-12-|
D|--0--0--0--0--0----0--0--0--0--0--|

 Outro  x4
e|----|
B|----|
G|-10-| 
D|--x-| x10
A|--8-|
D|----|
                                         Play Quietly and softly
e|----------------------------------|
B|----------------------------------|
G|--15-15-15-15-15---14-14-14-14-14-|
D|--x--x--x--x--x----x--x--x--x--x--|
A|--13-13-13-13-13---12-12-12-12-12-|
D|--0--0--0--0--0----0--0--0--0--0--|
Related for Just A Little tab
Advertisement will be closed in 10 seconds