Guitaretab - guitar tabs
Song name
# A B C D E F G H I J K L M N O P Q R S T U V W X Y Z

Used - Blue And Yellow tab

Blue And Yellow

Tuning - Drop D or Standard, both sound good.

Legend

GUITAR 2 = *
Hammer-On = h
Pull-Off (Immediately) = p
Strumming Hits = ^ + Number of strikes (outro only)
Slide Up = \
Slide Down = /
PM = Palm Mute


Intro

Both Guitars (fast strumming)
e|-----------------------------------6-6-6-------------------|
B|-----------------------------------6-6-6-------------------|
G|-8-8-8-6-6-6-6-6-6-8-8-8-8-8-8-8-8-8-8-8---8-8-8-6-6-------|
D|-x-x-x-x-x-x-x-x-x-x-x-x-x-x-x-x-x-6-6-6---x-x-x-x-x-------|
A|-6-6-6-4-4-4-4-4-4-6-6-6-6-6-6-6-6-6-6-6---6-6-6-4-4-------|
E|-0-0-0-0-0-0-0-0-0-0-0-0-0-0-0-0-0-0-0-0---0-0-0-0-0-------|

Verse 1
Guitar 1
And Itís All In How You Mix The Two,
e|---------------------------------------|
B|---------------------------------------|
G|-8-8-8-6-6-6-6-6-6-8-8-8-8-8-8-8-8-8-x-|
D|-x-x-x-x-x-x-x-x-x-x-x-x-x-x-x-x-x-x-x-|
A|-6-6-6-4-4-4-4-4-4-6-6-6-6-6-6-6-6-6-x-|
E|-0-0-0-0-0-0-0-0-0-0-0-0-0-0-0-0-0-0-x-|

And it starts just where the light exists,
e|---------------------------------------|
B|---------------------------------------|
G|-8-8-8-6-6-6-6-6-6-8-8-8-8-8-8-8-8-8-x-|
D|-x-x-x-x-x-x-x-x-x-x-x-x-x-x-x-x-x-x-x-|
A|-6-6-6-4-4-4-4-4-4-6-6-6-6-6-6-6-6-6-x-|
E|-0-0-0-0-0-0-0-0-0-0-0-0-0-0-0-0-0-0-x-|

Itís a feeling that you cannot miss,
e|---------------------------------------|
B|------*6*6*5*6*6*8*--------------------|
G|-8-8-8-6-6-6-6-6-6-8-8-8-8-8-8-8-8-8-x-|
D|-x-x-x-x-x-x-x-x-x-x-x-x-x-x-x-x-x-x-x-|
A|-6-6-6-4-4-4-4-4-4-6-6-6-6-6-6-6-6-6-x-|
E|-0-0-0-0-0-0-0-0-0-0-0-0-0-0-0-0-0-0-x-|

And it burns a whole, through everyone that feels it
e|---------------------------------------|
B|------------------*7*------------------|
G|-8-8-8-6-6-6-6-6-6-8-8-8-8-8-8-8-8-8-x-|
D|-x-x-x-x-x-x-x-x-x-x-x-x-x-x-x-x-x-x-x-|
A|-6-6-6-4-4-4-4-4-4-6-6-6-6-6-6-6-6-6-x-|
E|-0-0-0-0-0-0-0-0-0-0-0-0-0-0-0-0-0-0-x-|

Pre-Chorus

Well your never gunna find it if youíre looking for,
  it wonít come your way yeah,
e|--------------------------------------------------------|
B|--------------------------------------------------------|
G|-----9------9-----9-----9-----10-----10-----10-----10---|
D|--------------------------------------------------------|
A|-7-7----7-7---7-7---7-7---8-8----8-8----8-8----8-8------|
E|-0-0----0-0---0-0---0-0---0-0----0-0----0-0----0-0------|

Well youíll never find it,	 If your looking for it
e|--------------------------------------------------------|
B|--------------------------------------------------------|
G|-----9------9-----9-----9-----10-----10-----10-----10---|
D|--------------------------------------------------------|
A|-7-7----7-7---7-7---7-7---8-8----8-8----8-8----8-8------|
E|-0-0----0-0---0-0---0-0---0-0----0-0----0-0----0-0------|

Chorus

Both Guitars
Shouldíve done something but Iíve done it enough
e|------------------------------------------|
B|------------------------------------------|
G|-10--10-10-10-10-10-12-12-12-12-12-12-12--|
D|--8---8--8--8--8--8-10-10-10-10-10-10-10--|
A|--8---8--8--8--8--8-10-10-10-10-10-10-10--|
E|--8---8--8--8--8--8-10-10-10-10-10-10-10--|

By the way your hand was shaking,
rather waste some time with you
e|---------------------------------|
B|---------------------------------|
G|-5-5-5-5-5-5-5-5-5-5-5-5-5-5-5-5-|
D|-0-0-0-0-0-0-0-0-3-3-3-3-3-3-3-3-|
A|-0-0-0-0-0-0-0-0-3-3-3-3-3-3-3-3-|
E|-0-0-0-0-0-0-0-0-3-3-3-3-3-3-3-3-|

Verse 2

e|---------------------------------------|
B|*7*7*7*8*7*6*6*5*----------------------|
G|-8-8-8-6-6-6-6-6-6-8-8-8-8-8-8-8-8-8-x-|
D|-x-x-x-x-x-x-x-x-x-x-x-x-x-x-x-x-x-x-x-|
A|-6-6-6-4-4-4-4-4-4-6-6-6-6-6-6-6-6-6-x-|
E|-0-0-0-0-0-0-0-0-0-0-0-0-0-0-0-0-0-0-x-|

And you never would have thought in the end,
e|---------------------------------------|
B|---------------------------------------|
G|-8-8-8-6-6-6-6-6-6-8-8-8-8-8-8-8-8-8-x-|
D|-x-x-x-x-x-x-x-x-x-x-x-x-x-x-x-x-x-x-x-|
A|-6-6-6-4-4-4-4-4-4-6-6-6-6-6-6-6-6-6-x-|
E|-0-0-0-0-0-0-0-0-0-0-0-0-0-0-0-0-0-0-x-|

How amazing it feels, just to live again
e|---------------------------------------|
B|---------------------------------------|
G|-8-8-8-6-6-6-6-6-6-8-8-8-8-8-8-8-8-8-x-|
D|-x-x-x-x-x-x-x-x-x-x-x-x-x-x-x-x-x-x-x-|
A|-6-6-6-4-4-4-4-4-4-6-6-6-6-6-6-6-6-6-x-|
E|-0-0-0-0-0-0-0-0-0-0-0-0-0-0-0-0-0-0-x-|

Itís a feeling that you cannot miss
e|---------------------------------------|
B|---------------------------------------|
G|-8-8-8-6-6-6-6-6-6-8-8-8-8-8-8-8-8-8-x-|
D|-x-x-x-x-x-x-x-x-x-x-x-x-x-x-x-x-x-x-x-|
A|-6-6-6-4-4-4-4-4-4-6-6-6-6-6-6-6-6-6-x-|
E|-0-0-0-0-0-0-0-0-0-0-0-0-0-0-0-0-0-0-x-|

And it burns a whole, through everyone that feels it
e|---------------------------------------|
B|---------------------------------------|
G|-8-8-8-6-6-6-6-6-6-8-8-8-8-8-8-8-8-8-x-|
D|-x-x-x-x-x-x-x-x-x-x-x-x-x-x-x-x-x-x-x-|
A|-6-6-6-4-4-4-4-4-4-6-6-6-6-6-6-6-6-6-x-|
E|-0-0-0-0-0-0-0-0-0-0-0-0-0-0-0-0-0-0-x-|

Pre-Chorus
Well your never gunna find it if youíre looking for,
  it wonít come your way yeah,
e|--------------------------------------------------------|
B|--------------------------------------------------------|
G|-----9------9-----9-----9-----10-----10-----10-----10---|
D|--------------------------------------------------------|
A|-7-7----7-7---7-7---7-7---8-8----8-8----8-8----8-8------|
E|-0-0----0-0---0-0---0-0---0-0----0-0----0-0----0-0------|
[ Tab from: http://www.guitaretab.com/u/used/34924.html ]
Well youíll never find it,	 If your looking for it (looking for it)
e|--------------------------------------------------------|
B|--------------------------------------------------------|
G|-----9------9-----9-----9-----10-----10-----10-----10---|
D|--------------------------------------------------------|
A|-7-7----7-7---7-7---7-7---8-8----8-8----8-8----8-8------|
E|-0-0----0-0---0-0---0-0---0-0----0-0----0-0----0-0------|

Chorus

Both Guitars
Shouldíve done something but Iíve done it enough
e|------------------------------------------|
B|------------------------------------------|
G|-10--10-10-10-10-10-12-12-12-12-12-12-12--|
D|--8---8--8--8--8--8-10-10-10-10-10-10-10--|
A|--8---8--8--8--8--8-10-10-10-10-10-10-10--|
E|--8---8--8--8--8--8-10-10-10-10-10-10-10--|

By the way your hand was shaking,
rather waste some time with you
e|---------------------------------|
B|---------------------------------|
G|-5-5-5-5-5-5-5-5-5-5-5-5-5-5-5-5-|
D|-0-0-0-0-0-0-0-0-3-3-3-3-3-3-3-3-|
A|-0-0-0-0-0-0-0-0-3-3-3-3-3-3-3-3-|
E|-0-0-0-0-0-0-0-0-3-3-3-3-3-3-3-3-|

Shouldíve said something but Iíve said it enough
e|------------------------------------------|
B|------------------------------------------|
G|-10--10-10-10-10-10-12-12-12-12-12-12-12--|
D|--8---8--8--8--8--8-10-10-10-10-10-10-10--|
A|--8---8--8--8--8--8-10-10-10-10-10-10-10--|
E|--8---8--8--8--8--8-10-10-10-10-10-10-10--|

By the way my words were fading,
rather waste some time with you
e|-----------------------------------|
B|-----------------------------------|
G|-5-5-5-5-5-5-5-5-5-5-5-5-5-5-5-5~--|
D|-0-0-0-0-0-0-0-0-3-3-3-3-3-3-3-3~--|
A|-0-0-0-0-0-0-0-0-3-3-3-3-3-3-3-3~--|
E|-0-0-0-0-0-0-0-0-3-3-3-3-3-3-3-3~--|

Bridge

Guitar 1 with (Background Vocals)
Time with you, time with you
e|---------------------------------|
B|---------------------------------|
G|------------------3--------------|
D|-8h9p8-8-8-8-8-8--3--------------| Repeat 3x
A|-8h9p8-8-8-8-8-8--3--------------|
E|-8h9p8-8-8-8-8-8--3--------------|
PM       _ _ _ _ _

Waste some time with you, (ahhhhhh)
e|-------------------|
B|-------------------|
G|-------------------|
D|-8h9p8-7-7-7-7-7---|
A|-8h9p8-7-7-7-7-7---|
E|-8h9p8-7-7-7-7-7---|


Final Chorus

Shouldíve done something but Iíve done it enough
e|------------------------------------------|
B|------------------------------------------|
G|-10--10-10-10-10-10-12-12-12-12-12-12-12--|
D|--8---8--8--8--8--8-10-10-10-10-10-10-10--|
A|--8---8--8--8--8--8-10-10-10-10-10-10-10--|
E|--8---8--8--8--8--8-10-10-10-10-10-10-10--|

By the way your hands were shaking,
rather waste my time with you
e|---------------------------------|
B|---------------------------------|
G|-5-5-5-5-5-5-5-5-5-5-5-5-5-5-5-5-|
D|-0-0-0-0-0-0-0-0-3-3-3-3-3-3-3-3-|
A|-0-0-0-0-0-0-0-0-3-3-3-3-3-3-3-3-|
E|-0-0-0-0-0-0-0-0-3-3-3-3-3-3-3-3-|

Shouldíve said something but Iíve said it enough
e|------------------------------------------|
B|------------------------------------------|
G|-10--10-10-10-10-10-12-12-12-12-12-12-12--|
D|--8---8--8--8--8--8-10-10-10-10-10-10-10--|
A|--8---8--8--8--8--8-10-10-10-10-10-10-10--|
E|--8---8--8--8--8--8-10-10-10-10-10-10-10--|

By the way my words were fading,
rather waste my time with you
e|----------------------------------|
B|----------------------------------|
G|-5-5-5-5-5-5-5-5-5-5-5-5-5-5-5-5--|
D|-0-0-0-0-0-0-0-0-3-3-3-3-3-3-3-3--|
A|-0-0-0-0-0-0-0-0-3-3-3-3-3-3-3-3--|
E|-0-0-0-0-0-0-0-0-3-3-3-3-3-3-3-3--|

Shouldíve done something but Iíve done it enough
e|------------------------------------------|
B|------------------------------------------|
G|-10--10-10-10-10-10-12-12-12-12-12-12-12--|
D|--8---8--8--8--8--8-10-10-10-10-10-10-10--|
A|--8---8--8--8--8--8-10-10-10-10-10-10-10--|
E|--8---8--8--8--8--8-10-10-10-10-10-10-10--|

By the way your hands were shaking,
rather waste some time with you
e|---------------------------------|
B|---------------------------------|
G|-5-5-5-5-5-5-5-5-5-5-5-5-5-5-5-5-|
D|-0-0-0-0-0-0-0-0-3-3-3-3-3-3-3-3-|
A|-0-0-0-0-0-0-0-0-3-3-3-3-3-3-3-3-|
E|-0-0-0-0-0-0-0-0-3-3-3-3-3-3-3-3-|

Outro

Both Guitars
Waste some time with you
e|------------------------------------------|
B|------------------------------------------|
G|-10--10-10-10-10-10-12-12-12-12-12-12-12--|
D|--8---8--8--8--8--8-10-10-10-10-10-10-10--|
A|--8---8--8--8--8--8-10-10-10-10-10-10-10--|
E|--8---8--8--8--8--8-10-10-10-10-10-10-10--|

Waste some time with you
e|---------------------------------|
B|---------------------------------|
G|-5-5-5-5-5-5-5-5-5-5-5-5-5-5-5-5-|
D|-0-0-0-0-0-0-0-0-3-3-3-3-3-3-3-3-|
A|-0-0-0-0-0-0-0-0-3-3-3-3-3-3-3-3-|
E|-0-0-0-0-0-0-0-0-3-3-3-3-3-3-3-3-|

Guitar 1 (Repeat Til Fade, There are some variations with timing, but pretty much just repeating the below)
Waste some time with you, waste some time with you
e|-------------------------------------------------------------------------|
B|-13---------------------13---------------------13----------13------------|
G|----14----14------14-------14----14----14---------14----14----14----14---|
D|-------15----15------15-------15----15----15---------15----------15----15|
A|----------------0----------------------------0---------------------------|
E|-------------------------------------------------------------------------|
                  ^ open notes are played softly
Guitar 2
e|-------------------------|---|
B|-------------------------|---|
G|-10~/---12~\---5~----5~/-|-5-|
D|--8~/---10~\---0~----3~/-|-0-|
A|--8~/---10~\---0~----3~/-|-0-|
E|--8~/---10~\---0~----3-/-|-0-|
                             ^ (End on that one)

Any questions, or queries just lemme know

Notes: Bridge can also be played as 8h10p8, but i find the above way easier to play.
In the outro, though there is piano playing, guitar is also playing at the same time as 
don't believe me? check out the film clip
Related for Blue And Yellow tab