Song name
# A B C D E F G H I J K L M N O P Q R S T U V W X Y Z

Used - Slit Your Own Throat tab

well i were looking for the tab of this song and i only find the rymth intro..then i try 
get it..
so here is it..i think its pretty close...
normal tunnig...just the rymth is in drop D

--------------------------------------------------|
------------11b10---------------------------------|
-----10b12--------10b0----10b12--10b0-------------|     (x3)
-1212----------------------------------10-10-12---|
--------------------------------------------------|
--------------------------------------------------|

then..

-----------------------------------------|
-----------------------------------------|
---7b0-10b0-7b0-10b12-10b0---------------|
----------------------------10-10-12-----|              (x1)
-----------------------------------------|
-----------------------------------------|

the used 4ever.. bye!!
Tap to rate this tab
# A B C D E F G H I J K L M N O P Q R S T U V W X Y Z