Song name
# A B C D E F G H I J K L M N O P Q R S T U V W X Y Z

Used - Pain tab

I can't translate the synths from (0:00-0:11) yet.
But I'm pretty sure this is right. 
It sounds right to me. Try it out and tell me.


(0:12-0:20)
e|----------------------------------------------------------------||
B|----------------------------------------------------------------||
G|----------------------------------------------------------------||
D|---4-4-4-------0-0-0-------7-7-7-7-7-7-7-7-7-7------------------|| x3
A|---4-4-4-------0-0-0-------7-7-7-7-7-7-7-7-7-7------------------||
D|---4-4-4-------0-0-0-------7-7-7-7-7-7-7-7-7-7------------------||

(0:21-0:24) Play this after the third time.
e|----------------------------------------------------------------||
B|----------------------------------------------------------------||
G|----------------------------------------------------------------||
D|---7-7-7-------9-9-9----------4-4-4-4-4-4-4-4-4-4---------------||
A|---7-7-7-------9-9-9----------4-4-4-4-4-4-4-4-4-4---------------||
D|---7-7-7-------9-9-9----------4-4-4-4-4-4-4-4-4-4---------------||


------------------------------------------------------------------------
If you can find tabs on the bass, good luck.
The bass line throughout the whole song sounds so BA
It even includes bass tapping.

Watch Jepha play this crazy song here:
http://www.youtube.com/watch?v=4cZ2xh2Cnp4
Tap to rate this tab
# A B C D E F G H I J K L M N O P Q R S T U V W X Y Z