Song name
# A B C D E F G H I J K L M N O P Q R S T U V W X Y Z

Used - Greener With The Scenery tab

The Used - Greener With The Scenery

e|--------------------------------------------------|
B|-----5--5p3---------------------------------------|
G|---------------4-4h5-------5-5p2------------------|
D|---------------------------------------5-5h7------|
A|-0----------0----------0-----------0--------------|
E|--------------------------------------------------|

Between Verses
------------------------------------------------------------|
-----5------------------------------------------------------|
-----5------------------------------------------------------|
-----5---5--------------------------------------------------|
-----3---5--------------------------------------------------|
---------3--------------------------------------------------|
"change"

CHORUS
-------------------------------------------------------------|
-------------------------------------------------------------|
-------------------------------------------------------------|
---55555-555-55555-5-5--10----------55555-555-55555-5-5--10--|
---33333-333-55555-5-5---8----------33333-333-55555-5-5---8--|
-------------33333-3-3------------------------33333-3-3------|
'run we go around again in circles, play this game over again'

-----------------------------------------------------------|
-----------------------------------------------------------|
-----------------------------------------------------------|
--55555-555------------------7--9--10----------------------|
--33333-333------------------5--7---8----------------------|
-----------------------------------------------------------|
'run we go around again, in cir-ce-leess...'


i think my first tab turnt out pretty good, tell me what you think
Tap to rate this tab
# A B C D E F G H I J K L M N O P Q R S T U V W X Y Z