Guitaretab - guitar tabs
Song name
# A B C D E F G H I J K L M N O P Q R S T U V W X Y Z

Used - Let It Bleed tab

The Used - Let it Bleed

by Michel Franceschino


Intro Guitar 1 (Play through all Verse)

       Q      E     E   E    E   E    E
D||---------------------------------------|
A||--(10)---------(10)-----(10)-----(10)--|
F||--(10)---------(10)-----(10)-----(10)--|
C||---------------------------------------|
G||----------(8)--------------------------|
C||----------(8)--------------------------|


     E     E     E     E   E    E   E    E
---------------------------------------------|
---------------------(10)-----(10)-----(10)--|
---------(10)--------(10)-----(10)-----(10)--|
---------------------------------------------|
--/(10)--------(10)--------------------------|
--/(10)--------(10)--------------------------|


    E     E     E     E   E    E   E    E
--------------------------------------------|
--------------------------------------------|
--------(14)--------(14)-----(14)-----(14)--|
--------------------(15)-----(15)-----(15)--|
--(12)--------(12)--------------------------|
--(12)--------(12)--------------------------|


    E     E     E     E   E    E    E     E
---------------------------------------------|
---------------------------------------------|
--------(14)--------(14)-----(14)-------(12)-|
--------(15)--------(15)-----(15)------------|
--(12)--------(12)-----------------(8)-------|
--(12)--------(12)---------------------------|


    Q      E     E   E    E   E    E
---------------------------------------|
---------------(10)-----(10)-----(10)--|
--(14)---------(10)-----(10)-----(10)--|
--(15)---------------------------------|
----------(8)--------------------------|
----------(8)--------------------------|


     E     E     E     E   E    E   E    E
---------------------------------------------|
---------(10)--------(10)-----(10)-----(10)--|
---------(10)--------(10)-----(10)-----(10)--|
---------------------------------------------|
--/(10)--------(10)--------------------------|
--/(10)--------(10)--------------------------|


    Q       E     E   E    E   E    E
----------------------------------------|
----------------------------------------|
----------------(14)-----(14)-----(14)--|
----------------(15)-----(15)-----(15)--|
--(12)----(12)--------------------------|
--(12)----(12)--------------------------|


    E     E     E     E   E    E     E     E
----------------------------------------------|
----------------------------------------------|
--------(14)--------(14)-----(14)--(10)--(12--|
--------(15)--------(15)-----(15)-------------|
--(12)--------(12)------------------(8)--(10--|
--(12)--------(12)----------------------------|

Guitar 2

|---------------------------|
|---------------------------|
|---------------------------|
|---------------------------|
|----------------8--10--12--|
|------------12-------------|


   E  E  E  E   E  E  E  E
----------------------------|
---------------10-----------|
---------------10-----------|
------8--8------8-----------|
---L--8--8------8-----8--8--|
------8--8------8-----8--8--|


   E   E   E  E   E  E   E   E
--------------------------------|
-----------------10-------------|
-----------------10-------------|
-----------------10-------------|
---L--10--10-----10-----10--10--|
---L--10--10-----10-----10--10--|


  E   E   E  E   E  E   E   E
-------------------------------|
----------------10-------------|
----------------10-------------|
-------------------------------|
--L--12--12-----12-----12--12--|
--L--12--12-----12-----12--12--|


  E   E   E  E   E  E   E   E
-------------------------------|
----------------10-------------|
----------------10-------------|
-------------------------------|
--L--12--12-----12-----12--12--|
--L--12--12-----12-----12--12--|


  E  E  E  E   E  E  E  E
---------------------------|
--------------10-----------|
--------------10-----------|
-----8--8------8-----------|
--L--8--8------8-----8--8--|
--L--8--8------8-----8--8--|


   E   E   E  E   E  E   E   E
--------------------------------|
-----------------10-------------|
-----------------10-------------|
-----------------10-------------|
---L--10--10-----10-----10--10--|
---L--10--10-----10-----10--10--|


  E   E   E  E   E  E   E   E
-------------------------------|
----------------10-------------|
----------------10-------------|
-------------------------------|
--L--12--12-----12-----12--12--|
--L--12--12-----12-----12--12--|


  E   E   E  E   E  E   E   E
-------------------------------|
----------------10-------------|
----------------10-------------|
-------------------------------|
--L--12--12-----12-----12--12--|
--L--12--12-----12-----12--12--|


  E  E  E  E   E  E  E  E
---------------------------|
--------------10-----------|
--------------10-----------|
-----8--8------8-----------|
-----8--8------8-----8--8--|
-----8--8------8-----8--8--|


   E   E   E  E   E  E   E   E
--------------------------------|
-----------------10-------------|
-----------------10-------------|
-----------------10-------------|
---L--10--10-----10-----10--10--|
---L--10--10-----10-----10--10--|


  E   E   E  E   E  E   E   E
-------------------------------|
----------------10-------------|
----------------10-------------|
-------------------------------|
--L--12--12-----12-----12--12--|
--L--12--12-----12-----12--12--|


  E   E   E  E   E  E   E   E
-------------------------------|
----------------10-------------|
----------------10-------------|
-------------------------------|
--L--12--12-----12-----12--12--|
--L--12--12-----12-----12--12--|


  E  E  E  E   E  E  E  E
---------------------------|
--------------10-----------|
--------------10-----------|
-----8--8------8-----------|
--L--8--8------8-----8--8--|
--L--8--8------8-----8--8--|


   E   E   E  E   E  E   E   E
--------------------------------|
-----------------10-------------|
-----------------10-------------|
-----------------10-------------|
---L--10--10-----10-----10--10--|
---L--10--10-----10-----10--10--|


   E   E   E   E   E   E   E   E
----------------------------------|
----------------------------------|
----------------------------------|
--12--12--12--12--12--12--12--12--|
--12--12--12--12--12--12--12--12--|
--12--12--12--12--12--12--12--12--|


   E   E   E   E   E   E   E   E
----------------------------------|
----------------------------------|
----------------------------------|
--12--12--12--12--12--12--12--12--|
--12--12--12--12--12--12--12--12--|
--12--12--12--12--12--12--12--12--|


  E  E  E  E  E  E  E  E
--------------------------|
--------------------------|
--------------------------|
--8--8--8--8--8--8--8--8--|
--8--8--8--8--8--8--8--8--|
--8--8--8--8--8--8--8--8--|


   E   E   E   E   E   E   E   E
----------------------------------|
----------------------------------|
----------------------------------|
--10--10--10--10--10--10--10--10--|
--10--10--10--10--10--10--10--10--|
--10--10--10--10--10--10--10--10--|


   E   E   E   E   E   E   E   E
----------------------------------|
----------------------------------|
----------------------------------|
--12--12--12--12--12--12--12--12--|
--12--12--12--12--12--12--12--12--|
--12--12--12--12--12--12--12--12--|


   E   E   E   E   E   E   E   E
----------------------------------|
----------------------------------|
----------------------------------|
--12--12--12--12--12--12--12--12--|
--12--12--12--12--12--12--12--12--|
--12--12--12--12--12--12--12--12--|


  E  E  E  E  E  E  E  E
--------------------------|
--------------------------|
--------------------------|
--8--8--8--8--8--8--8--8--|
--8--8--8--8--8--8--8--8--|
--8--8--8--8--8--8--8--8--|


   E   E   E   E   E   E   E   E
----------------------------------|
----------------------------------|
----------------------------------|
--10--10--10--10--10--10--10--10--|
--10--10--10--10--10--10--10--10--|
--10--10--10--10--10--10--10--10--|


   E   E   E   E   E   E   E   E
----------------------------------|
----------------------------------|
----------------------------------|
--12--12--12--12--12--12--12--12--|
--12--12--12--12--12--12--12--12--|
--12--12--12--12--12--12--12--12--|


   E   E   E   E   E   E   E   E
----------------------------------|
----------------------------------|
----------------------------------|
--12--12--12--12--12--12--12--12--|
--12--12--12--12--12--12--12--12--|
--12--12--12--12--12--12--12--12--|


  W                    E  E  Q    H
-------------------|-----------------------|
-------------------|-----------------------|
-------------------|-----------------------|
--8----------------|-----------------------|
--8----------------|--10-------------------|
--8----------------|--10-------------------|


  E  E  E  E   E  E  E  E
---------------------------|
--------------10-----------|
--------------10-----------|
-----8--8------8-----------|
-----8--8------8-----8--8--|
-----8--8------8-----8--8--|


   E   E   E  E   E  E   E   E
--------------------------------|
-----------------10-------------|
-----------------10-------------|
-----------------10-------------|
---L--10--10-----10-----10--10--|
---L--10--10-----10-----10--10--|


  E   E   E  E   E  E   E   E
-------------------------------|
----------------10-------------|
----------------10-------------|
-------------------------------|
--L--12--12-----12-----12--12--|
--L--12--12-----12-----12--12--|


  E   E   E  E   E  E   E   E
-------------------------------|
----------------10-------------|
----------------10-------------|
-------------------------------|
--L--12--12-----12-----12--12--|
--L--12--12-----12-----12--12--|


  E  E  E  E   E  E  E  E
---------------------------|
--------------10-----------|
--------------10-----------|
-----8--8------8-----------|
--L--8--8------8-----8--8--|
--L--8--8------8-----8--8--|


   E   E   E  E   E  E   E   E
--------------------------------|
-----------------10-------------|
-----------------10-------------|
-----------------10-------------|
---L--10--10-----10-----10--10--|
---L--10--10-----10-----10--10--|


  E   E   E  E   E  E   E   E
-------------------------------|
----------------10-------------|
----------------10-------------|
-------------------------------|
--L--12--12-----12-----12--12--|
--L--12--12-----12-----12--12--|


  E   E   E  E   E  E   E   E
-------------------------------|
----------------10-------------|
----------------10-------------|
-------------------------------|
--L--12--12-----12-----12--12--|
--L--12--12-----12-----12--12--|


  E  E  E  E   E  E  E  E
---------------------------|
--------------10-----------|
--------------10-----------|
-----8--8------8-----------|
-----8--8------8-----8--8--|
-----8--8------8-----8--8--|


   E   E   E  E   E  E   E   E
--------------------------------|
-----------------10-------------|
-----------------10-------------|
-----------------10-------------|
---L--10--10-----10-----10--10--|
---L--10--10-----10-----10--10--|


  E   E   E  E   E  E   E   E
-------------------------------|
----------------10-------------|
----------------10-------------|
-------------------------------|
--L--12--12-----12-----12--12--|
--L--12--12-----12-----12--12--|


  E   E   E  E   E  E   E   E
-------------------------------|
----------------10-------------|
----------------10-------------|
-------------------------------|
--L--12--12-----12-----12--12--|
--L--12--12-----12-----12--12--|


  E  E  E  E   E  E  E  E
---------------------------|
--------------10-----------|
--------------10-----------|
-----8--8------8-----------|
--L--8--8------8-----8--8--|
--L--8--8------8-----8--8--|


   E   E   E  E   E  E   E   E
--------------------------------|
-----------------10-------------|
-----------------10-------------|
-----------------10-------------|
---L--10--10-----10-----10--10--|
---L--10--10-----10-----10--10--|


   E   E   E   E   E   E   E   E
----------------------------------|
----------------------------------|
----------------------------------|
--12--12--12--12--12--12--12--12--|
--12--12--12--12--12--12--12--12--|
--12--12--12--12--12--12--12--12--|


   E   E   E   E   E   E   E   E
----------------------------------|
----------------------------------|
----------------------------------|
--12--12--12--12--12--12--12--12--|
--12--12--12--12--12--12--12--12--|
--12--12--12--12--12--12--12--12--|


  E  E  E  E  E  E  E  E
--------------------------|
--------------------------|
--------------------------|
--8--8--8--8--8--8--8--8--|
--8--8--8--8--8--8--8--8--|
--8--8--8--8--8--8--8--8--|


   E   E   E   E   E   E   E   E
----------------------------------|
----------------------------------|
----------------------------------|
--10--10--10--10--10--10--10--10--|
--10--10--10--10--10--10--10--10--|
--10--10--10--10--10--10--10--10--|

[ Tab from: http://www.guitaretab.com/u/used/133095.html ]
   E   E   E   E   E   E   E   E
----------------------------------|
----------------------------------|
----------------------------------|
--12--12--12--12--12--12--12--12--|
--12--12--12--12--12--12--12--12--|
--12--12--12--12--12--12--12--12--|


   E   E   E   E   E   E   E   E
----------------------------------|
----------------------------------|
----------------------------------|
--12--12--12--12--12--12--12--12--|
--12--12--12--12--12--12--12--12--|
--12--12--12--12--12--12--12--12--|


  E  E  E  E  E  E  E  E
--------------------------|
--------------------------|
--------------------------|
--8--8--8--8--8--8--8--8--|
--8--8--8--8--8--8--8--8--|
--8--8--8--8--8--8--8--8--|


   E   E   E   E   E   E   E   E
----------------------------------|
----------------------------------|
----------------------------------|
--10--10--10--10--10--10--10--10--|
--10--10--10--10--10--10--10--10--|
--10--10--10--10--10--10--10--10--|


   E   E   E   E   E   E   E   E
----------------------------------|
----------------------------------|
----------------------------------|
--12--12--12--12--12--12--12--12--|
--12--12--12--12--12--12--12--12--|
--12--12--12--12--12--12--12--12--|


   E   E   E   E   E   E   E   E
----------------------------------|
----------------------------------|
----------------------------------|
--12--12--12--12--12--12--12--12--|
--12--12--12--12--12--12--12--12--|
--12--12--12--12--12--12--12--12--|


  W                    E  E  Q    H
-------------------|-----------------------|
-------------------|-----------------------|
-------------------|-----------------------|
--8----------------|-----------------------|
--8----------------|--10-------------------|
--8----------------|--10-------------------|


  W                   W
-------------------|-------------------|
-------------------|-------------------|
-------------------|-------------------|
--0----------------|--L----------------|
--0----------------|--L----------------|
--0----------------|--L----------------|


Bridge Guitar 1

   E   E   E   E   E   E   E   E
----------------------------------|
----------------------------------|
--14--14--14--14--14--14--14--14--|
----------------------------------|
--12--12--12--12--12--12--12--12--|
----------------------------------|


   E   E   E   E   E   E   E   E
----------------------------------|
----------------------------------|
--14--14--14--14--14--14--14--14--|
----------------------------------|
--12--12--12--12--12--12--12--12--|
----------------------------------|


   E   E   E   E   E   E   E   E
----------------------------------|
----------------------------------|
--14--14--14--10--10--10--12--12--|
----------------------------------|
--12--12--12---8---8---8--10--10--|
----------------------------------|


   E   E   E   E   E   E   E   E
----------------------------------|
----------------------------------|
--12------------------------------|
------12--12--12--12--12--12--12--|
--10------------------------------|
------12--12--12--12--12--12--12--|


   E   E   E   E   E   E   E   E
----------------------------------|
----------------------------------|
--14--14--14--10--10--10--12--12--|
----------------------------------|
--12--12--12---8---8---8--10--10--|
----------------------------------|


   E   E   E   E   E   E   E   E
----------------------------------|
----------------------------------|
--12------------------------------|
------12--12--12--12--12--12--12--|
--10------------------------------|
------12--12--12--12--12--12--12--|


   E   E   E   E   E   E   E   E
----------------------------------|
----------------------------------|
--14--14--14--10--10--10--12--12--|
----------------------------------|
--12--12--12---8---8---8--10--10--|
----------------------------------|


   E   E   E   E   E   E   E   E
----------------------------------|
----------------------------------|
--12------------------------------|
------12--12--12--12--12--12--12--|
--10------------------------------|
------12--12--12--12--12--12--12--|


   E   E   E   E   E   E   E   E
----------------------------------|
----------------------------------|
--14--14--14--10--10--10--12--12--|
----------------------------------|
--12--12--12---8---8---8--10--10--|
----------------------------------|


   E   E   E   E   E  E  E  E
-------------------------------|
-------------------------------|
--12---------------------------|
------12--12--12--12-----------|
--10---------------------------|
------12--12--12--12-----------|


Both Guitars

        E  E  E  E  E  E  E  E
|--------------------------|
|--------------------------|
|--------------------------|
|--7--7--7--3--3--3--5--5--|
|--7--7--7--3--3--3--5--5--|
|--7--7--7--3--3--3--5--5--|


  E  E  E  E  E  E  E  E
--------------------------|
--------------------------|
--------------------------|
--5--0--0--0--0--0--0--0--|
--5--0--0--0--0--0--0--0--|
--5--0--0--0--0--0--0--0--|


  E  E  E  E  E  E  E  E
--------------------------|
--------------------------|
--------------------------|
--7--7--7--3--3--3--5--5--|
--7--7--7--3--3--3--5--5--|
--7--7--7--3--3--3--5--5--|


  E  E  E  E  E  E  E  E
--------------------------|
--------------------------|
--------------------------|
--5--0--0--0--0--0--0--0--|
--5--0--0--0--0--0--0--0--|
--5--0--0--0--0--0--0--0--|


  E  E  E  E  E  E  E  E
--------------------------|
--------------------------|
--------------------------|
--7--7--7--3--3--3--5--5--|
--7--7--7--3--3--3--5--5--|
--7--7--7--3--3--3--5--5--|


  E  E  E  E  E  E  E  E
--------------------------|
--------------------------|
--------------------------|
--5--0--0--0--0--0--0--0--|
--5--0--0--0--0--0--0--0--|
--5--0--0--0--0--0--0--0--|


  E  E  E  E  E  E  E  E
--------------------------|
--------------------------|
--------------------------|
--7--L--L--3--L--L--5--L--|
--7--L--L--3--L--L--5--L--|
--7--L--L--3--L--L--5--L--|


  E  E  E  E  E  E  E
-----------------------|
-----------------------|
-----------------------|
--L--0--L--L--L--L--L--|
--L--0--L--L--L--L--L--|
--L--0--L--L--L--L--L--|


 Play Inntro Guitar 1 again


Guitar 2

   E  E  E  E   E  E  E  E
----------------------------|
---------------10-----------|
---------------10-----------|
------8--8------8-----------|
---L--8--8------8-----8--8--|
------8--8------8-----8--8--|


   E   E   E  E   E  E   E   E
--------------------------------|
-----------------10-------------|
-----------------10-------------|
-----------------10-------------|
---L--10--10-----10-----10--10--|
---L--10--10-----10-----10--10--|


  E   E   E  E   E  E   E   E
-------------------------------|
----------------10-------------|
----------------10-------------|
-------------------------------|
--L--12--12-----12-----12--12--|
--L--12--12-----12-----12--12--|


  E   E   E  E   E  E   E   E
-------------------------------|
----------------10-------------|
----------------10-------------|
-------------------------------|
--L--12--12-----12-----12--12--|
--L--12--12-----12-----12--12--|


  E  E  E  E   E  E  E  E
---------------------------|
--------------10-----------|
--------------10-----------|
-----8--8------8-----------|
--L--8--8------8-----8--8--|
--L--8--8------8-----8--8--|


   E   E   E  E  E  E   E   E
-------------------------------|
-------------------------------|
-------------------------------|
-------------------------------|
---L--10--10-----------10--10--|
---L--10--10-----------10--10--|


  E   E   E  E   E  E   E   E
-------------------------------|
----------------10-------------|
----------------10-------------|
-------------------------------|
--L--12--12-----12-----12--12--|
--L--12--12-----12-----12--12--|


   E  E  E  E  E  E  E  E
---------------------------|
---------------------------|
---------------------------|
--12--------------------8--|
--12--------------------8--|
--12--------------------8--|


  E  E  E  E  E  E  E   E
---------------------------|
---------------------------|
---------------------------|
--L--8--8--8--8--8--8--10--|
--L--8--8--8--8--8--8--10--|
--L--8--8--8--8--8--8--10--|


   E   E   E   E   E   E   E   E
----------------------------------|
----------------------------------|
----------------------------------|
---L--10--10--10--10--10--10--12--|
---L--10--10--10--10--10--10--12--|
---L--10--10--10--10--10--10--12--|


   E   E   E   E   E   E   E   E
----------------------------------|
----------------------------------|
----------------------------------|
---L--12--12--12--12--12--12--12--|
---L--12--12--12--12--12--12--12--|
---L--12--12--12--12--12--12--12--|


   E   E   E   E   E   E   E  E
---------------------------------|
---------------------------------|
---------------------------------|
--12--12--12--12--12--12--12--8--|
--12--12--12--12--12--12--12--8--|
--12--12--12--12--12--12--12--8--|


  E  E  E  E  E  E  E   E
---------------------------|
---------------------------|
---------------------------|
--L--8--8--8--8--8--8--10--|
--L--8--8--8--8--8--8--10--|
--L--8--8--8--8--8--8--10--|


   E   E   E   E   E   E   E   E
----------------------------------|
----------------------------------|
----------------------------------|
---L--10--10--10--10--10--10--12--|
---L--10--10--10--10--10--10--12--|
---L--10--10--10--10--10--10--12--|


   E   E   E   E   E   E   E   E
----------------------------------|
----------------------------------|
----------------------------------|
---L--12--12--12--12--12--12--12--|
---L--12--12--12--12--12--12--12--|
---L--12--12--12--12--12--12--12--|


                   |---3---|   |---3---|
   E   E   E   E   E   E   E   E   E   E
------------------------------------------|
------------------------------------------|
------------------------------------------|
--12--12--12--12--12--12--12--12--12--12--|
--12--12--12--12--12--12--12--12--12--12--|
--12--12--12--12--12--12--12--12--12--12--|


  E  E  E  E  E  E  E  E
--------------------------|
--------------------------|
--------------------------|
--8--8--8--8--8--8--8--8--|
--8--8--8--8--8--8--8--8--|
--8--8--8--8--8--8--8--8--|


   E   E   E   E   E   E   E   E
----------------------------------|
----------------------------------|
----------------------------------|
--10--10--10--10--10--10--10--10--|
--10--10--10--10--10--10--10--10--|
--10--10--10--10--10--10--10--10--|


   E   E   E   E   E   E   E   E
----------------------------------|
----------------------------------|
----------------------------------|
--12--12--12--12--12--12--12--12--|
--12--12--12--12--12--12--12--12--|
--12--12--12--12--12--12--12--12--|


   E   E   E   E   E   E   E   E
----------------------------------|
----------------------------------|
----------------------------------|
--12--12--12--12--12--12--12--12--|
--12--12--12--12--12--12--12--12--|
--12--12--12--12--12--12--12--12--|


  E  E  E  E  E  E  E  E
--------------------------|
--------------------------|
--------------------------|
--8--8--8--8--8--8--8--8--|
--8--8--8--8--8--8--8--8--|
--8--8--8--8--8--8--8--8--|


   E  E  Q    H
-----------------------|
-----------------------|
-----------------------|
--10-------------------|
--10-------------------|
--10-------------------|


  E  E  E  E  E  E  E  E
--------------------------|
--------------------------|
--------------------------|
--7--7--7--3--3--3--5--5--|
--7--7--7--3--3--3--5--5--|
--7--7--7--3--3--3--5--5--|


  E  E  E  E  E  E  E  E
--------------------------|
--------------------------|
--------------------------|
--5--0--0--0--0--0--0--0--|
--5--0--0--0--0--0--0--0--|
--5--0--0--0--0--0--0--0--|


  E  E  E  E  E  E  E  E
--------------------------|
--------------------------|
--------------------------|
--7--7--7--3--3--3--5--5--|
--7--7--7--3--3--3--5--5--|
--7--7--7--3--3--3--5--5--|


  E  E  E  E  E  E  E  E
--------------------------|
--------------------------|
--------------------------|
--5--0--0--0--0--0--0--0--|
--5--0--0--0--0--0--0--0--|
--5--0--0--0--0--0--0--0--|


  E  E  E  E  E  E  E  E
--------------------------|
--------------------------|
--------------------------|
--7--7--7--3--3--3--5--5--|
--7--7--7--3--3--3--5--5--|
--7--7--7--3--3--3--5--5--|


  E  E  E  E  E  E  E  E
--------------------------|
--------------------------|
--------------------------|
--5--0--0--0--0--0--0--0--|
--5--0--0--0--0--0--0--0--|
--5--0--0--0--0--0--0--0--|


  E  E  E  E  E  E  E  E
--------------------------|
--------------------------|
--------------------------|
--7--L--L--3--L--L--5--L--|
--7--L--L--3--L--L--5--L--|
--7--L--L--3--L--L--5--L--|


  E  E  E  E  E  E  E  E
--------------------------|
--------------------------|
--------------------------|
--L--0--L--L--L--L--L--L--|
--L--0--L--L--L--L--L--L--|
--L--0--L--L--L--L--L--L--|


  E  E  E  E  E  E  E  E
--------------------------|
--------------------------|
--------------------------|
--7--L--L--3--L--L--5--L--|
--7--L--L--3--L--L--5--L--|
--7--L--L--3--L--L--5--L--|


  E  E  E  E  E  E  E  E
--------------------------||
--------------------------||
--------------------------||
--L--0--L--L--L--L--L--L--||
--L--0--L--L--L--L--L--L--||
--L--0--L--L--L--L--L--L--||
Related for Let It Bleed tab