Song name
# A B C D E F G H I J K L M N O P Q R S T U V W X Y Z

Used - Sold My Soul tab

Hey guys I just wanted to get this tab out there so it might not be 100% correct. There 
a few parts I have not put in but they are very easy to figure out. If you have any 
changes, or suggestions just contact me at football_fantom@hotmail.com

Intro
||-16b16~-15b15~-13p12|
||--------------------|
||--------------------|
||--------------------|x2
||--------------------|
||--------------------|

||----------------------------|
||--141414141415*-121212121212|
||----------------------------|
||----------------------------|
||----------------------------|
||----------------------------|

Verse
||------------------------------------|
||------------------------------------|
||------------------------------------|
||-44444444----00000000----22222222---|X2
||-44444444-x4-00000000-x2-22222222-x2|
||-44444444----00000000----22222222---|
   ........    ........    ........
||------------------------------------|
||------------------------------------|
||------------------------------------|
||-44444444----00000000----2----------|
||-44444444-x4-00000000-x2-2----------|
||-44444444----00000000----2----------|

Chorus Chords
||----------------------------|
||----------------------------|
||----------------------------|
||-0---2---4---2--------------|
||-0---2---4---2--------------|
||-0---2---4---2--------------|

||----------------------------|
||----------------------------|
||----------------------------|
||-0000-222-4444-7777777-9\---|
||-0000-222-4444-7777777-9\---|
||-0000-222-4444-7777777-9\---|

||----------------------------|
||----------------------------|
||----------------------------|
||-000000---2-----------------|
||-000000---2-----------------|
||-000000---2-----------------|

Intro
||-16b16~-15b15~-13p12--|
||----------------------|
||----------------------|
||----------------------|x2
||----------------------|
||----------------------|

||----------------------------|
||--141414141415*-121212121212|
||----------------------------|
||----------------------------|
||----------------------------|
||----------------------------|

Verse
||------------------------------------|
||------------------------------------|
||------------------------------------|
||-44444444----00000000----22222222---|X2
||-44444444-x4-00000000-x2-22222222-x2|
||-44444444----00000000----22222222---|
   ........    ........    ........
||----------------------------|
||----------------------------|
||----------------------------|
||-44444444----00000000----2--|
||-44444444-x4-00000000-x2-2--|
||-44444444----00000000----2--|

Chorus Chords
||----------------------------|
||----------------------------|
||----------------------------|
||-0---2---4---2--------------|
||-0---2---4---2--------------|
||-0---2---4---2--------------|

||----------------------------|
||----------------------------|
||----------------------------|
||-0000-222-4444-7777777-9\---|
||-0000-222-4444-7777777-9\---|
||-0000-222-4444-7777777-9\---|

||----------------------------|
||----------------------------|
||----------------------------|
||-000000---2-----------------|
||-000000---2-----------------|
||-000000---2-----------------|

Verse

||------------------------------|
||-10-9-7-----------------------|play with tons of delay, repeat
||------------------------------|
||------------------------------|
||------------------------------|
||------------------------------|

Chorus Chords
||----------------------------|
||----------------------------|
||----------------------------|
||-0---2---4---2--------------|
||-0---2---4---2--------------|
||-0---2---4---2--------------|

||----------------------------|
||----------------------------|
||----------------------------|
||-0000-222-4444-7777777-9\---|
||-0000-222-4444-7777777-9\---|
||-0000-222-4444-7777777-9\---|

||----------------------------|
||----------------------------|
||----------------------------|
||-000000---2-----------------|
||-000000---2-----------------|
||-000000---2-----------------|

Intro
||-16b16~-15b15~-13p12--|
||----------------------|
||----------------------|
||----------------------|x2
||----------------------|
||----------------------|

||----------------------------|
||--141414141415*-121212121212|
||----------------------------|
||----------------------------|
||----------------------------|
||----------------------------|
Tap to rate this tab
# A B C D E F G H I J K L M N O P Q R S T U V W X Y Z