Guitaretab - guitar tabs
Song name
# A B C D E F G H I J K L M N O P Q R S T U V W X Y Z

Vandals - I Have A Date tab

Artist: The Vandals
Song: I Have A Date

tabbed by shanE
email - random.hero___@hotmail.com

|-----------------------------------|
|-----------------------------------|
|-----------------------------------|
|------------------12-12-12-12-12---|
|-3-3-5-5-3-3-5-5--10-10-10-10-10---|
|-1-1-3-3-1-1-3-3-------------------|


|---------------------------|
|---------------------------|
|---------------------------|
|-5-5-5-7-7-7---------------|
|-3-3-3-5-5-5-3-3-3-5-5-5---|
|-------------1-1-1-3-3-3---|

|-----------------------------------|
|-----------------------------------|
|-----------------------------------|
|------------------12-12-12-12-12---|
|-3-3-5-5-3-3-5-5--10-10-10-10-10---|
|-1-1-3-3-1-1-3-3-------------------|



|-----------------------------------|
|-----------------------------------|
|-----------------------------------|
|-----------------------------------|
|-5-9--12-12-12-9-9-9-10-9-7--5-5-5-|
|-3-7--10-10-10-7-7-7-8--7-5--3-3-3-|
|-----------------------------------|

|-----------------------------------|
|-----------------------------------|
|-----------------------------------|
|------------------12-12-12-12-12---|
|-3-3-5-5-3-3-5-5--10-10-10-10-10---|
|-1-1-3-3-1-1-3-3-------------------|

|----------------|
|----------------|
|---15-15-15-15--|
|----x--x--x--x--|
|-/-13-13-13-13--|
|----------------|
[ Tab from: http://www.guitaretab.com/v/vandals/20115.html ]
|------------------------------------|
|------------------------------------|
|------------------------------------|
|---------------------------------b10|
|-6-5-3-1-3-1-5~-6-5-3-/-8-6-8-9~----|
|------------------------------------|

|---------------------------|
|---------------------------|
|---------------------------|
|-5-5-5-7-7-7---------------|
|-3-3-3-5-5-5-3-3-3-5-5-5---|
|-------------1-1-1-3-3-3---|

|-----------------------------------|
|-----------------------------------|
|-----------------------------------|
|------------------12-12-12-12-12---|
|-3-3-5-5-3-3-5-5--10-10-10-10-10---|
|-1-1-3-3-1-1-3-3-------------------|

|-----------------------------------|
|-----------------------------------|
|-----------------------------------|
|-----------------------------------|
|-5-9--12-12-12-9-9-9-10-9-7--5-5-5-|
|-3-7--10-10-10-7-7-7-8--7-5--3-3-3-|
|-----------------------------------|

|-----------------------------------|
|-----------------------------------|
|-----------------------------------|
|------------------12-12-12-12-12---|
|-3-3-5-5-3-3-5-5--10-10-10-10-10---|
|-1-1-3-3-1-1-3-3-------------------|

|---------------------------|
|---------------------------|
|---------------------------|
|-5-5-5-7-7-7---------------|
|-3-3-3-5-5-5-3-3-3-5-5-5---|
|-------------1-1-1-3-3-3---|

|-----------------------------------|
|-----------------------------------|
|-----------------------------------|
|------------------12-12-12-12-12---|
|-3-3-5-5-3-3-5-5--10-10-10-10-10---|
|-1-1-3-3-1-1-3-3-------------------|

|---------------------------|
|---------------------------|
|---------------------------|
|-5-5-5-7-7-7--10-10-10-12~-|
|-3-3-3-5-5-5--8--8--8--10~-|
|---------------------------|

|-8-~-|
|-8-~-|
|-9-~-|
|-10~-|
|-10~-|
|-8-~-|
Related for I Have A Date tab
×
I Have A Date