Veer Union - Falling Apart tab

-----------------------------------------------------------------------------
			     falling apart - The veer union
-----------------------------------------------------------------------------
Tabbed by: jseeks13
Email:jseeks13@gmail.com

Tuning: Standard

Guitar 1 Intro
e|--434----434--434---484----------------------------------------------------|
B|---------------------------------------------------------------------------|
G|---------------------------------------------------------------------------|
D|---------------------------------------------------------------------------|
A|---------------------------------------------------------------------------|
E|-1-----4-----6----4--------------------------------------------------------|

Guitar 2 Intro
e|----------------------------------------------------------------------------|
B|--5-6651-101-8865-----------------------------------------------------------|
G|33-3------------------------------------------------------------------------|
D|----------------------------------------------------------------------------|
A|----------------------------------------------------------------------------|
E|----------------------------------------------------------------------------|

The guitar 1 intro part is also the part for the verse

Chorus Guitar 1

All Power Chords

Fade in is F

The rest of the chorus is a rotation between F, A#, and G#.

Chorus guitar 2 as many times as needed, i think its four

e|-----8---9---8-------------------------------------------------------------|
B|--66---6---6---------------------------------------------------------------|
G|---------------------------------------------------------------------------|
D|---------------------------------------------------------------------------|
A|---------------------------------------------------------------------------|
E|---------------------------------------------------------------------------|

 Bridge is the guitar 2 part from the intro

 Second verse is the same as the first

Chorus is the same as the first, F A# G# and the guitar 2 part

Interlude

once again all power chords

A# C# G# G

at the end of the interlude when there is one note holding out, repeat this

e|---8----8------------------------------------------------------------------|
B|-66-6-66-6-----------------------------------------------------------------|
G|---------------------------------------------------------------------------|
D|---------------------------------------------------------------------------|
A|---------------------------------------------------------------------------|
E|---------------------------------------------------------------------------|

Re- entry to chorus

             Oooooohh yyyeeaahh....could somebody put me back together
              G     G#     G

Then you go back to all the regular chorus things, the chords and the guitar 2 part that 
throughout

After this you get a chorus with different words and some background vocals...
the chords for this chorus are A# C# G# G
It fades out to the end on an F after you repeat those four chords
Also, the guitar two part from the chorus repeats until the end.
Sorry if this tab is hard to understand because of all my references back, im just lazy.
I tabbed this out, and put up this tab because i found absolutely no tabs for this song 
the internet. So here you go! enjoy

************************************

| /   slide up
| \   slide down
| h   hammer-on
| p   pull-off
| ~   vibrato
| +   harmonic
| x   Mute note
| b   Bend
| pb  Pre-bend
| br  Bend release
| pbr Pre-bend release
| brb Bend release bend

************************************
Tap to rate this tab
 
# A B C D E F G H I J K L M N O P Q R S T U V W X Y Z