Guitaretab - guitar tabs
Song name
# A B C D E F G H I J K L M N O P Q R S T U V W X Y Z

Velvet Revolver - You Got No Right tab

-------------------------------------------------------------------------------
		      You Got No Right - Velvet Revolver
-------------------------------------------------------------------------------
Tabbed by: cris9288
Email: ebonyandivory31@yahoo.com

Tuning: standard


So the song goes like this (play fig 1 or variations of it)
Intro: D B-flat C

        D               B-flat        C             D
I fell through the ice she wonít be coming back again

                       B-flat      C
It never wins to lie she said you never had no rights

   B-flat     C             D
(she said you never had no rights)

  B-flat   C              D
I took it farther on the outside

  B-flat   C              D
I took it nearly to the brink

B-flat      C             D
And if you see me on the outside

 B-flat     C               D
You wouldíve barely seen me breathe
B-flat              C                    D
Funny right here I find myself inside a paper cup

B-flat                               C               D
Without a warning or a reason, itís treason with no answer

B-flat             C
You got no right, to keep it wet in here

B-flat             C
You got no right, to keep the pain in here
                D
That holds the crown


B-flat         C            D
And if I fall apart on the outside (you really donít believe me)

B-flat   C               D
And if I take it to the brink

B-flat   C                  D
And if I fall apart on the outside (you really donít believe me)

B-flat       C              D
You wouldíve barely seen me breathe

E        G             D
And if I meet you out tonight

E            G        D
Will you be loving me forever

E           G              D
Itís always over after the night

E           G               D
Itís always colder after the night

Solo:
Iím not too sure about the build-up, because itís pretty fast so I really didnít try and 
it out, but this is very accurate

e|----13---12---10-10-------13b15--13-13--12-12-------------14---------------|
B|--------------------10------------------------10-------15------------------|
G|---------------------------------------------------/14---------------------|
D|---------------------------------------------------------------------------|
A|---------------------------------------------------------------------------|
E|---------------------------------------------------------------------------|

e|---pb(13)14--10h13p10-------10---------------------------------------------|
B|------------------------13------13b15--------11b13--11~~~--9b10-9b10-9b10--|
G|---------------------------------------------------------------------------|
D|---------------------------------------------------------------------------|
A|---------------------------------------------------------------------------|
E|---------------------------------------------------------------------------|
[ Tab from: http://www.guitaretab.com/v/velvet-revolver/131685.html ]
e|-----------------------------------------|
B|--8~~--8~~---7-8-8-10--10~~~--8--10~~----|
G|-----------------------------------------|
D|-----------------------------------------|
A|-----------------------------------------|
E|-----------------------------------------|

e|--------10----12b13-12--10h12p10----10-------------------------------------|
B|--10h12---12---------------------12-----/15-(pinch harmonic)---------------|
G|---------------------------------------------------------------------------|
D|---------------------------------------------------------------------------|
A|---------------------------------------------------------------------------|
E|---------------------------------------------------------------------------|


e|---18--17--15-15-----18b20--18--17-17--15-15--14-1415b17~~~(slow release)--|
B|-----------------15--------------------------------------------------------|
G|---------------------------------------------------------------------------|
D|---------------------------------------------------------------------------|
A|---------------------------------------------------------------------------|
E|---------------------------------------------------------------------------|

e|-----18b20--18------18b20-18-------20b22--20b22~~~----17h20-------20-------|
B|--15-------------15---------15-----------------------------20b22====r20----|
G|---------------------------------------------------------------------------|
D|---------------------------------------------------------------------------|
A|---------------------------------------------------------------------------|
E|---------------------------------------------------------------------------|

e|---------------------------------------------------------------------------|
B|--20b21----20b21-20b21-20b21-20b21-20b21-20b21---(19b20r19b20)*------------|
G|---------------------------------------------------------------------------|
D|---------------------------------------------------------------------------|
A|---------------------------------------------------------------------------|
E|---------------------------------------------------------------------------|
                                       *(repeat this last lick a bunch of times)

D                        B-flat      C           D
I broke through the ice She won't be coming back again  It's been a

year and a night


B-flat   C                 D
And if I fall apart on the outside  (You really don't believe me)

B-flat    C              D
And if I take it to the brink

B-flat    C                 D
And if I fall apart on the outside (You really don't believe me)

B-flat          C              D
You would have barely seen me breathe

B-flat    C                  D
And if I fall apart on the outside

B-flat    C                  D
And if I fall apart on the outside

B-flat    C                  D
And if I fall apart on the outside

B-flat    C                  D
And if I fall apart on the outsideÖ


| /  slide up
| \  slide down
| h  hammer-on
| p  pull-off
| ~  vibrato
| +  harmonic
| x  Mute note
===============================================================================
Related for You Got No Right tab