Song name
# A B C D E F G H I J K L M N O P Q R S T U V W X Y Z

Velvet Revolver - Beggars And Hangers On tab

-------------------------------------------------------------------------------
                               Beggars And Hangers On - Velvet Revolver
-------------------------------------------------------------------------------
Tabbed by: J.B.K.G

This is the intro after slide section.

Tuning: Drop C# and other strings half step down

eb|-------------------------------------------------------------------------|
Bb|-------------------------------------------------------------------------|
F#|-------------------------------------------------------------------------|
C#|-----3-2-0-------0----0--------------3-2-0-------0----0-3/5--------------|
Ab|-----------0--3^------------0--------------0--3^--------3/5--------------|
C#|-------------------3^---3^p-0----------------------3^---3/5--------------|

eb|-------------------------------------------------------------------------|
Bb|-------------------------------------------------------------------------|
F#|------------------------------------------------------0------------------|
C#|-----3-2-0-------0----0--------------3--3-2-0-----0-----3-2-0-----0------|
Ab|-----------0--3^------------0-----------------0-3---3---------0-3--------|
C#|-------------------3^---3^p-0--------------------------------------------|

eb|-------------------------------------------------------------------------|
Bb|-------------------------------------------------------------------------|
F#|-------------------------------------------------------------------------|
C#|-----3-2-0-------0----0--------------3-2-0-------0----0-3/5--------------|
Ab|-----------0--3^------------0--------------0--3^--------3/5--------------|
C#|-------------------3^---3^p-0----------------------3^---3/5--------------|

eb|-------------------------------------------------------------------------|
Bb|-------------------------------------------------------------------------|
F#|------------------------------------------------------0------------------|
C#|-----3-2-0-------0----0--------------3--3-2-0-----0-----3-2-0-----0--3-0-|
Ab|-----------0--3^------------0-----------------0-3---3---------0-3----3-0-|
C#|-------------------3^---3^p-0----------------------------------------3-0-|

----------------------------
p   pull off
^   1/4 step up
/   slide up
----------------------------
Tap to rate this tab
# A B C D E F G H I J K L M N O P Q R S T U V W X Y Z