Guitaretab - guitar tabs
Song name
# A B C D E F G H I J K L M N O P Q R S T U V W X Y Z

Velvet Revolver - Breaking Point tab

-------------------------------------------------------------------------------
			     BREAKING POINT - Velvet Revolver
-------------------------------------------------------------------------------
Tabbed by: Massacr3chan
Email: deaf_forever@hotmail.com

Tuning: Standard

Listen to the song for the strumming patterns
[ Tab from: http://www.guitaretab.com/v/velvet-revolver/145254.html ]
e|-----------------------------------------------------------------------|
B|-----------------------------------------------------------------------|
G|-----------------------------------------------------------------------|
D|------4------------2--------------------------4----------7----------5--| 
A|------2------------0-----------2--------------2----------5----------3--|
E|-------------------------------0---------------------------------------|
        *            *           *              *          *          *
Then Drums Kick In

e|-----------------------------------------------------------------------|
B|-----------------------------------------------------------------------|
G|-----------------------------------------------------------------------|
D|------4------------2--------------------------4---------7----------9---|
A|------2------------0-----------2--------------2---------5----------7---|
E|-------------------------------0---------------------------------------|


| /  slide up
| \  slide down
| h  hammer-on
| p  pull-off
| ~  vibrato
| +  harmonic
| x  Mute note
===========
Related for Breaking Point tab
Advertisement will be closed in 10 seconds