Song name
# A B C D E F G H I J K L M N O P Q R S T U V W X Y Z

Velvet Revolver - Mary Mary tab

Mary Mary by Velvet Revolver

bass
G------------------|
D------------------|
A------------------|
E-2-2-1-1-0-1------|


e---0-------0-------0------|
B---0-------0-------0------|
G-----4-------4------------|
D-2---4---2---4---2---4----|
A-2---2---2---2---2---4----|
E-0-------0-------0---2----|


e------------------|
B------------------|
G------------------|
D-4-4-3-3-2-3------|
A-4-4-3-3-2-3------|
E-2-2-1-1-0-1------|

e---0-------0-----------------------------|
B---0-------0----------------5------------|
G-----4-------4----------6--4----------4--|
D-2---4---2---4--7--6--5-6-6---4-6-7-2-4--|
A-2---2---2---2--7--6--5-4-----4-6-7-2-2--|
E-0-------0------5--4--3-------2-4-5-0----|

e------------------|
B------------------|
G------------------|
D-4-4-3-3-2-3------|
A-4-4-3-3-2-3------|
E-2-2-1-1-0-1------|

3 times
e----------------------|
B----------------------|
G-7-----5--------------|
D-7--7--5--------------|
A-5--7--3--------------|
E----5-----------------|

e----------------------|
B----------------------|
G-7---4----------------|
D-7-7-4----------------|
A-5-7-2----------------|
E---5------------------|

Tabbed by Antonio P. from Rende
Tap to rate this tab
# A B C D E F G H I J K L M N O P Q R S T U V W X Y Z