Song name
# A B C D E F G H I J K L M N O P Q R S T U V W X Y Z

Ventures - Apache tab

                        The Ventures - Apache

Standard turning


Intro (x2) :

E-------------------------|
A-------------------------|
D-------------------------|
G---2-------2-------------|
B-----1-3^----1-----------|
e---------------3~5-3-0---|

Play the next part x2

E----------------------|
A----------------------|
D--2---2---2~4---2-0-2-|
G----2---2-------------|
B----------------------|
e----------------------|

x1
E------------------------|---------------------|
A------------------------|---------------------|
D------------------------|--2---2---2~4--2-0-2-|
G---2---2---2~4---2-0-2--|----2---2------------|
B-----3---3--------------|---------------------|
e------------------------|---------------------|

Play this next part x2

E-------------------------|
A--3---3---3---3------0---|
D----3---3---3---3--2-----|
G-------------------------|
B-------------------------|
e-------------------------|

x1
E----------------------|-----------------|
A----------------------|-----------------|
D--3-------------------|--3--------------|
G---2----------------2-|---2-------------|
B----1-0--1-3-5-3-1----|----2-0--1-3-5---|
e----------------------|---------------3-|


E----------------------|
A----------------------|
D--3-------------------|
G---2----------------2-|
B----1-0--1-3-5-3-1----|
e----------------------|

Play this next part x2

E-------------------------|
A--3---3---3---3------0---|
D----3---3---3---3--2-----|
G-------------------------|
B-------------------------|
e-------------------------|

Play the next part x2

E----------------------|
A----------------------|
D--2---2---2~4---2-0-2-|
G----2---2-------------|
B----------------------|
e----------------------|

x1
E------------------------|---------------------|
A------------------------|---------------------|
D------------------------|--2---2---2~4--2-0-2-|
G---2---2---2~4---2-0-2--|----2---2------------|
B-----3---3--------------|---------------------|
e------------------------|---------------------|

Again x2

E----------------------|-----------------|
A----------------------|-----------------|
D--3-------------------|--3--------------|
G---2----------------2-|---2-------------|
B----1-0--1-3-5-3-1----|----2-0--1-3-5---|
e----------------------|---------------3-|

x1
E-------------------------|
A--3---3---3---3------0---|
D----3---3---3---3--2-----|
G-------------------------|
B-------------------------|
e-------------------------|

Play again the intro x4
Tap to rate this tab
# A B C D E F G H I J K L M N O P Q R S T U V W X Y Z