Song name
# A B C D E F G H I J K L M N O P Q R S T U V W X Y Z

Verra Cruz - Soul On Fire tab

Key:

----5/8--- Slide Up

----8\5--- Slide Down

||------|| Indicates section to repeat


Intro                             

                            ||   Repeat this twice      ||
e|--------------------------||--------------------------||----------------------|
B|-3-----0/3-3-3\2---1-3----||-----0/3-3-3\2---1-3------||----------------------|
G|-2---------------2--------||---------------2-------2--||---2--2---------------|
D|-0---0--------------------||---0-----------------2----||--3--2--0-------------|
A|--------------------------||--------------------------||----------------------|
D|--------------------------||--------------------------||----------------------|



Verse

 || Repeat this three times  ||
e||--------------------------||----------------------|
B||-----0/3-3-3\2---1-3------||----------------------|
G||---------------2-------2--||---2--2---------------|
D||---0-----------------2----||--3--2--0-------------|
A||--------------------------||----------------------|
D||--------------------------||----------------------|



Instrumental

                      After the repeated chords Marc solos around these notes
                      and some others...                    ...then returns to the verse
e|-----------------------------10--8--7---|
B|----------------------------------------|
G|----------------------------------------|
D|-3---3---0------------------------------|
A|-3---3---0------------------------------|
D|-3---2---0------------------------------|





 http://www.verracruz.com/index.php
Tap to rate this tab
# A B C D E F G H I J K L M N O P Q R S T U V W X Y Z