Song name
# A B C D E F G H I J K L M N O P Q R S T U V W X Y Z

Verra Cruz - Freedom tab

#----------------------------------PLEASE NOTE---------------------------------#
#This file is the author's own work and represents their interpretation of the #
#song. You may only use this file for private study, scholarship, or research. #
#------------------------------------------------------------------------------##

Verra Cruz - Freedom
====================
by Soeren Alexnat

Tuning: E A D G B E


  Moderate Rock Q=86

Intro:
======
  
  |-3-| |-3-| |-3-| |-3-|   |-3-| |-3-| |-3-| |-3-|   |-3-| |-3-| |-3-| |-3-|
  E E E E E E E E E E E E   E E E E E E E E E E E E   E E E E E E E E E E E E
|-------------------------|-------------------------|--------------------------|
|-------------------------|-------------------------|--------------------------|
|-------------------------|---------------7-7-7-----|--------------------------|
|-------------------------|---------------7-7-7-7-7-|--------------------------|
|-7-8-9-7-8-9-7-8-9-7-8-9-|-7-8-9-7-8-9---------7-7-|-7-8-9-7-8-9-7-8-9-7-8-9--|
|-7-7-7-7-7-7-7-7-7-7-7-7-|-7-7-7-7-7-7-------------|-7-7-7-7-7-7-7-7-7-7-7-7--|


  |-3-| |-3-| |--3---| |-3--|         |-3-| |-3-|           |--3---| |-3-|
  E E E E E E E    E E E E  E   Q  Q  E E E E E E     Q  Q  E E    E E E E
|-----------------------------|---------------------|-------------------------|
|-------------9b10r9---9------|----8----------------|----8--------------------|
|-------------9b10r9-7-9-7p---|----7----------------|----7--------------------|
|---------------------------9-|----6----------------|----6--------------------|
|-7-8-9-7-8-9-----------------|-------------5-------|-------7-5tr7---5--------|
|-7-7-7-7-7-7-----------------|-0-----5-6-7---7-5b6-|-0------------7---7-5b6--|


        |-3-| |-3-|   |-3-| |-3-| |-3-| |-3-|
  Q  Q  E E E E E E   E E E E E E E E E E E E
|-------------------|----------------------------||
|----8--------------|----------------------------||
|----7--------------|----------------------------||
|----6--------------|----------------------------||
|-------------5-6---|-5-6---5--------------------||
|-0-----5-6-7-----7-|-----7---6-7-5-6-7-3-4-5----||


Verse:
======
            |-3-|               |-3-|               |-3-|
    Q  Q  S E E E +E.   Q  Q  S E E E +E.   Q  Q  S E E E +E.
||----------3-3-------|---------3-3-------|---------3-3----------|
||o---------3-3-3-(3)-|---------3-3-3-(3)-|---------3-3-3-(3)----|
||----------0-0-2-(2)-|---------0-0-2-(2)-|---------0-0-2-(2)----|
||----------0-0-0-(0)-|---------0-0-0-(0)-|---------0-0-0-(0)----|
||o-2-----------------|-2-----------------|-2--------------------|
||--0-----------------|-0-----------------|-0--------------------|


        |--3---| |-3-|
  Q  Q  E E    E E E E
|-------------------------||
|------------------------o||
|-------------------------||
|-------------------------||
|-2-----7-5tr7---5-------o||
|-0------------7---7-5b6--||


PreChorus:
==========

  |-3-| |-3-| |-3-| |-3-|   |-3-| |-3-| |-3-| |-3-|   |-3-| |-3-| |-3-| |-3-|
  E E E E E E E E E E E E   E E E E E E E E E E E E   E E E E E E E E E E E E
|-------------------------|-------------------------|--------------------------|
|-------------------------|-------------------------|--------------------------|
|-------------------------|---------------7-7-7-----|--------------------------|
|-------------------------|---------------7-7-7-7-7-|--------------------------|
|-7-8-9-7-8-9-7-8-9-7-8-9-|-7-8-9-7-8-9---------7-7-|-7-8-9-7-8-9-7-8-9-7-8-9--|
|-7-7-7-7-7-7-7-7-7-7-7-7-|-7-7-7-7-7-7-------------|-7-7-7-7-7-7-7-7-7-7-7-7--|


  |-3-| |-3-| |-3-| |-3-|   |-3-| |-3-| |-3-| |-3-|   |-3-| |-3-| |-3-| |-3-|
  E E E E E E E E E E E E   E E E E E E E E E E E E   E E E E E E E E E E E E
|-------------------------|-------------------------|--------------------------|
|-------------------------|-------------------------|--------------------------|
|---------------7-7-7-----|-------------------------|---------------7-7-7------|
|---------------7-7-7-7-7-|-------------------------|---------------7-7-7-7-7--|
|-7-8-9-7-8-9---------7-7-|-7-8-9-7-8-9-7-8-9-7-8-9-|-7-8-9-7-8-9---------7-7--|
|-7-7-7-7-7-7-------------|-7-7-7-7-7-7-7-7-7-7-7-7-|-7-7-7-7-7-7--------------|


  |-3-| |-3-| |-3-| |-3-|   |-3-| |-3-| |--3---| |-3--|
  E E E E E E E E E E E E   E E E E E E E    E E E E  E
|-------------------------|--------------------------------||
|-------------------------|-------------9b10r9---9---------||
|-------------------------|-------------9b10r9-7-9-7p------||
|-------------------------|---------------------------9----||
|-7-8-9-7-8-9-7-8-9-7-8-9-|-7-8-9-7-8-9--------------------||
|-7-7-7-7-7-7-7-7-7-7-7-7-|-7-7-7-7-7-7--------------------||


Bridge:
=======

          |-3-| |-3-|           |--3---| |-3-|           |-3-| |-3-|
    Q  Q  E E E E E E     Q  Q  E E    E E E E     Q  Q  E E E E E E
||----------------------|------------------------|---------------------|
||o----8----------------|----8-------------------|----8----------------|
||-----7----------------|----7-------------------|----7----------------|
||-----6----------------|----6-------------------|----6----------------|
||o-2-----------5-------|-2-----7-5tr7---5-------|-2-----------5-6-----|
||--0-----5-6-7---7-5b6-|-0------------7---7-5b6-|-0-----5-6-7-----7---|


  |-3-| |-3-| |-3-| |-3-|
  E E E E E E E E E E E E
|--------------------------||
|-------------------------o||
|--------------------------||
|--------------------------||
|-5-6---5-----------------o||
|-----7---6-7-5-6-7-3-4-5--||


    |-3-| |-3-| |-3-| |-3-|   |-3-| |-3-| |-3-| |-3-|
    E E E E E E E E E E E E   E E E E E E E E E E E E
||--------7-----------7-----|-------0-----------0------||
||o---8-------8---8-------8-|---7-------7---5-------5-o||
||--9---9---9---7---7---7---|-6---6---6---5---5---5----||
||--------------------------|--------------------------||
||o-------------------------|-------------------------o||
||--------------------------|--------------------------||


Duration Legend
---------------
W - whole; H - half; Q - quarter; E - 8th; S - 16th; T - 32nd; X - 64th; a - acciaccatura
+ - note tied to previous; . - note dotted; .. - note double dotted
Uncapitalized letters represent notes that are staccato (1/2 duration)
Irregular groupings are notated above the duration line
Duration letters will always appear directly above the note/fret number it represents the
duration for.  Duration letters with no fret number below them represent rests.  Multi-
bar rests are notated in the form Wxn, where n is the number of bars to rest for.  Low
melody durations appear below the staff

Tablature Legend
----------------
 h   - hammer-on
 p   - pull-off
 b   - bend
 pb  - pre-bend
 r   - bend release (if no number after the r, then release immediately)
 /\  - slide into or out of (from/to "nowhere")
 s   - legato slide
 S   - shift slide
  - natural harmonic
[n]  - artificial harmonic
n(n) - tapped harmonic
 ~   - vibrato
 tr  - trill
 T   - tap
 TP  - trem. picking
 PM  - palm muting
\n/  - tremolo bar dip; n = amount to dip
 \n  - tremolo bar down
 n/  - tremolo bar up
/n\  - tremolo bar inverted dip
 =   - hold bend; also acts as connecting device for hammers/pulls
 <>  - volume swell (louder/softer)
 x   - on rhythm slash represents muted slash
 o   - on rhythm slash represents single note slash

Misc Legend
-----------
 |  - bar
||  - double bar
||o - repeat start
o|| - repeat end
*|  - double bar (ending)
 :  - bar (freetime)
 $  - Segno
 &  - Coda
Tempo markers -  = BPM(8/16=s8/s16), where s8 = swing 8ths, s16 = swing 16ths
Tap to rate this tab
# A B C D E F G H I J K L M N O P Q R S T U V W X Y Z