Song name
# A B C D E F G H I J K L M N O P Q R S T U V W X Y Z

War Of Ages - Stand Your Ground tab

The Black box Revelation
Stand Your Ground
Standard: EADGBE

Tabbed by: Mattes shaggy

CHORDS:
------
     F#      E      A       D      B
e|-------------------------------------------------------------|
B|-------------------------------------------------------------|
G|--------------------------7------4---------------------------|
D|----4------2------7-------7------4---------------------------|
A|----4------2------7-------5------2---------------------------|
E|----2------0------5------------------------------------------|


INTRO:1
--------------------------------------------------------------------------|
e|------------------------------------------------------------------------|
B|------------------------------------------------------------------------|
G|------------------------------------------------------------------------|
D|-------4-4----------4-4-------------------------------------------------|
A|-------4-4----------4-4-------------------------------------------------|
E|-------2-2----------2-2-------------------------------------------------| x1

INTRO:2
--------------------------------------------------------------------------|
e|------------------------------------------------------------------------|
B|------------------------------------------------------------------------|
G|------------------------------------------------------------------------|
D|----4-4---x----4-4-4-4--4---2-2------7-7---x---7-7-7-7--7---2-2---------|
A|----4-4---x----4-4-4-4--4---2-2------7-7---x---7-7-7-7--7---2-2---------|
E|----2-2---x----2-2-2-2--2---0-0------5-5---x---5-5-5-5--5---0-0---------| x2


VERSE:
--------------------------------------------------------------------------|
e|------------------------------------------------------------------------|
B|------------------------------------------------------------------------|
G|------------------------------------------------------------------------|
D|----4-4---x----4-4-4-4--4---2-2------7-7---x---7-7-7-7--7---2-2---------|
A|----4-4---x----4-4-4-4--4---2-2------7-7---x---7-7-7-7--7---2-2---------|
E|----2-2---x----2-2-2-2--2---0-0------5-5---x---5-5-5-5--5---0-0---------| x4


CHORUS:
---------------------------------------------------------------------------|
e|-------------------------------------------------------------------------|
B|-------------------------------------------------------------------------|
G|---------------------------------------7-7-7-7-7-7-7-7---4-4-4-4-4-4-4-4-|
D|--4-4-4-4-4-4-4-4---7-7-7-7-7-7-7-7----5-5-5-5-5-5-5-5---4-4-4-4-4-4-4-4-|
A|--4-4-4-4-4-4-4-4---7-7-7-7-7-7-7-7----5-5-5-5-5-5-5-5---2-2-2-2-2-2-2-2-|
E|--2-2-2-2-2-2-2-2---5-5-5-5-5-5-5-5--------------------------------------|

e|------------------------------------------------------------------------|
B|------------------------------------------------------------------------|
G|---------------------------------------7-7-7-7-7-7-7-7---4-~------------|
D|--4-4-4-4-4-4-4-4---7-7-7-7-7-7-7-7----5-5-5-5-5-5-5-5---4-~------------|
A|--4-4-4-4-4-4-4-4---7-7-7-7-7-7-7-7----5-5-5-5-5-5-5-5---2-~------------|
E|--2-2-2-2-2-2-2-2---5-5-5-5-5-5-5-5-------------------------------------|

INTRO:2
--------------------------------------------------------------------------|
e|------------------------------------------------------------------------|
B|------------------------------------------------------------------------|
G|------------------------------------------------------------------------|
D|----4-4---x----4-4-4-4--4---2-2------7-7---x---7-7-7-7--7---2-2---------|
A|----4-4---x----4-4-4-4--4---2-2------7-7---x---7-7-7-7--7---2-2---------|
E|----2-2---x----2-2-2-2--2---0-0------5-5---x---5-5-5-5--5---0-0---------| x2


VERSE:
--------------------------------------------------------------------------|
e|------------------------------------------------------------------------|
B|------------------------------------------------------------------------|
G|------------------------------------------------------------------------|
D|----4-4---x----4-4-4-4--4---2-2------7-7---x---7-7-7-7--7---2-2---------|
A|----4-4---x----4-4-4-4--4---2-2------7-7---x---7-7-7-7--7---2-2---------|
E|----2-2---x----2-2-2-2--2---0-0------5-5---x---5-5-5-5--5---0-0---------| x4


CHORUS:
---------------------------------------------------------------------------|
e|-------------------------------------------------------------------------|
B|-------------------------------------------------------------------------|
G|---------------------------------------7-7-7-7-7-7-7-7---4-4-4-4-4-4-4-4-|
D|--4-4-4-4-4-4-4-4---7-7-7-7-7-7-7-7----5-5-5-5-5-5-5-5---4-4-4-4-4-4-4-4-|
A|--4-4-4-4-4-4-4-4---7-7-7-7-7-7-7-7----5-5-5-5-5-5-5-5---2-2-2-2-2-2-2-2-|
E|--2-2-2-2-2-2-2-2---5-5-5-5-5-5-5-5--------------------------------------|x4

INTRO:1
--------------------------------------------------------------------------|
e|------------------------------------------------------------------------|
B|------------------------------------------------------------------------|
G|------------------------------------------------------------------------|
D|-------4-4----------4-4-------------------------------------------------|
A|-------4-4----------4-4-------------------------------------------------|
E|-------2-2----------2-2-------------------------------------------------| x1

e|---------------------------------------------------------------------|
B|---------------------------------------------------------------------|
G|---------------------------------------------------------------------|
D|-------4-4---x-x-----------------------------------------------------|
A|-------4-4---x-x-----------------------------------------------------|
E|-------2-2---x-x-----------------------------------------------------|


e|---------------------------------------------------------------------|
B|---------------------------------------------------------------------|
G|--------------------------7-7-------4-4-4-4-4-4-4-4-4-4-4-4----------|
D|-------4-4-------7-7------7-7-------4-4-4-4-4-4-4-4-4-4-4-4----------|
A|-------4-4-------7-7------5-5-------2-2-2-2-2-2-2-2-2-2-2-2----------|
E|-------2-2-------5-5-------------------------------------------------|

CHORUS:
---------------------------------------------------------------------------|
e|-------------------------------------------------------------------------|
B|-------------------------------------------------------------------------|
G|---------------------------------------7-7-7-7-7-7-7-7---4-4-4-4-4-4-4-4-|
D|--4-4-4-4-4-4-4-4---7-7-7-7-7-7-7-7----5-5-5-5-5-5-5-5---4-4-4-4-4-4-4-4-|
A|--4-4-4-4-4-4-4-4---7-7-7-7-7-7-7-7----5-5-5-5-5-5-5-5---2-2-2-2-2-2-2-2-|
E|--2-2-2-2-2-2-2-2---5-5-5-5-5-5-5-5--------------------------------------|x4


VERSE:
--------------------------------------------------------------------------|
e|------------------------------------------------------------------------|
B|------------------------------------------------------------------------|
G|------------------------------------------------------------------------|
D|----4-4---x----4-4-4-4--4---2-2------7-7---x---7-7-7-7--7---2-2---------|
A|----4-4---x----4-4-4-4--4---2-2------7-7---x---7-7-7-7--7---2-2---------|
E|----2-2---x----2-2-2-2--2---0-0------5-5---x---5-5-5-5--5---0-0---------| x2


END ON:
------------------------------------------------------------------------|
e|----------------------------------------------------------------------|
B|----------------------------------------------------------------------|
G|----------------------------------------------------------------------|
D|-------4-~----------------------------------4-4-----------------------|
A|-------4-~----------------------------------4-4-----------------------|
E|-------2-~----------------------------------2-2-----------------------|
Tap to rate this tab
# A B C D E F G H I J K L M N O P Q R S T U V W X Y Z