Song name
# A B C D E F G H I J K L M N O P Q R S T U V W X Y Z

War Of Ages - Instrumental Acoustic tab

Thought this might be useful to somebody, I'm still working on the rest of the acoustic 
part to this song but I just can't quite figure it out. I'll have it up as soon as I'm 
done though. God bless!
     -Goalie Nub

e|---------------------------------------------------------------|
B|---------------------------------------------------------------|
G|---8/12---10\8--10--8h10p8--7--8--7h8p7-------------7h8--------|
D|------------------------------------------10--8h10-------10----|
A|---------------------------------------------------------------|
E|---------------------------------------------------------------|

e|---------------------------------------------------------------|
B|---------------------------------------------------------------|
G|--------7h8-----7h8p7--7h8/10--8h10/12-13-13/15-13--12h13p12---|
D|--8h10-------8-------------------------------------------------|
A|---------------------------------------------------------------|
E|---------------------------------------------------------------|

e|-----------------------------------------6---------------------|
B|----------------------------------------------or----------11---|
G|--10-8-7h8/10-8-7h8p7-------7-8-8/10-7h8-----------7h8---------|
D|-----------------------8-10------------------------------------|
A|---------------------------------------------------------------|
E|---------------------------------------------------------------|


| /  slide up
| \  slide down
| h  hammer-on
| p  pull-off
| ~  vibrato
| +  harmonic
| x  Mute note
Tap to rate this tab
 
# A B C D E F G H I J K L M N O P Q R S T U V W X Y Z