Song name
# A B C D E F G H I J K L M N O P Q R S T U V W X Y Z

Warpaint - Shadows chords

-------------------------------------------------------------------------------
			     SHADOWS - Warpaint
-------------------------------------------------------------------------------
Tabbed by:MariaValerievna
Email:hallucinoheniy@gmail.com

Tuning:Standard

Chords used
e|-(2)-------3-|
B|--3--3--8--3-|
G|--4--x--6--4-|
D|--4--4--x--5-|
A|--2--4--7--5-|
E|--------5--3-|
Tap to rate this tab
 
# A B C D E F G H I J K L M N O P Q R S T U V W X Y Z