Song name
# A B C D E F G H I J K L M N O P Q R S T U V W X Y Z

Washya - Patricide tab

-----------------------------------------------------------------------------
                      Patricide 
-----------------------------------------------------------------------------
Tuning: Standard (slight palm mute the bass notes)
Intro
e|-----0--------------0---3-5--------5-3-0---------0-----3-----|
b|-------0----------0---0----------5-------------0---3-----0---|
g|---------4------2------------------------------------0-------|
D|-----------5--3----------------------------------------------|
A|---6--------------------------4-------------2----------------|
E|-7--------------------------5-------------3------------------|
pm . .                        . .           . . 

Verses
e|---------0---0-0-0-------0-|
b|-----------4-0-0-0-------0-|
g|-------4-----5-4-2-------2-|
D|-----5-------------2-4-5---|
A|---2-----------------------|
E|-0-------------------------|

Chorus
e|---------------------------|
b|---------------------------|
g|---------------------------|
D|--------------------6666-5-|
A|-2-2-2-3-4-55-4-4-4-4444-3-|
E|-0-0-0-1-2-33-2-2-2--------|
pm . . . 
Tap to rate this tab
# A B C D E F G H I J K L M N O P Q R S T U V W X Y Z