Song name
# A B C D E F G H I J K L M N O P Q R S T U V W X Y Z

Washya - Southbound tab

-----------------------------------------------------------------------------
              Southbound - Washya
-----------------------------------------------------------------------------
(Heavy as Fuck)
Tuning: Standard(EBGDAE)
Intro                  (whammy bar)
E|--------------------------|
B|--------------------------|
G|------5------3------2-\7*-|
D|------5------3------2-----|
A|-22-----22-----22---------|
E|-00-x---00-x---00-x-------|
PM **     **     ** 

Main Riff/Chorus
E|-------------------------------------------------------|
B|-------------------------------------------------------|
G|-------------------------------------------------------|
D|-------------------------------------------------------|
A|-2-4-3-5-3-6-----4-6-7-6-6-2-2-3-4-7-5-4-2-3-4-3-4-3-2-|
E|-0-2-1-3-1-4-4-6---------4-0-0-1-2-5-3-2-0-1-2-1-2-1-0-|
PM             * * * * * *     * * * * * * * * * * * * 

Verses
E|---------------------------------|
B|---------------------------------|
G|---------------------------------|
D|---------------------------------|
A|--------6p5h6---66p5-66p5-66p5-5-|
E|-44h5p4-------4----------------3-|
PM ****** ***** * **** **** ****

Main Riff/Chorus
E|-------------------------------------------------------|
B|-------------------------------------------------------|
G|-------------------------------------------------------|
D|-------------------------------------------------------|
A|-2-4-3-5-3-6-----4-6-7-6-6-2-2-3-4-7-5-4-2-3-4-3-4-3-2-|
E|-0-2-1-3-1-4-4-6---------4-0-0-1-2-5-3-2-0-1-2-1-2-1-0-|
PM             * * * * * *     * * * * * * * * * * * * 

 Verses
E|---------------------------------|
B|---------------------------------|
G|---------------------------------|
D|---------------------------------|
A|--------6p5h6---66p5-66p5-66p5-5-|
E|-44h5p4-------4----------------3-|
PM ****** ***** * **** **** ****

Guitar Solo (slow)
E|------19p18-----19p18-16h18-19b-19b-18~-----15----------15-----------|
B|-/17~-------/17--------------------------------14b---------14bp12----|
G|----------------------------------------/12---------/12-----------14-|
D|---------------------------------------------------------------------|
A|---------------------------------------------------------------------|
E|---------------------------------------------------------------------|

E|-----------/12-12h15p12-12h15p12-12h16p12-12h16-12-12h14p12-12h14-|
B|-12-12------------------------------------------------------------|
G|-------14~--------------------------------------------------------|
D|------------------------------------------------------------------|
A|------------------------------------------------------------------|
E|------------------------------------------------------------------|

E|-10-10h12p10-10h12-9-9h10-9-9h10----10-------10h13p10h13p10h13p10-------|
B|---------------------------------12----10h12----------------------13p10-|
G|------------------------------------------------------------------------|
D|------------------------------------------------------------------------|
A|------------------------------------------------------------------------|
E|------------------------------------------------------------------------|

E|-------------------------------------------------------------------------|
B|-10h13p10h13p10h13p10----------------------------------------------------|
G|----------------------13p10h13p10h13-------------------------------------|
D|-------------------------------------13p12p10h12h13p12p10----------------|
A|----------------------------------------------------------13p12p10h12h13-|
E|-------------------------------------------------------------------------|
            
                                  (INCREDIBLY FAST SECTION)
E|--------------------------------|-------------------|
B|--------------------------------|-------------------|
G|--------------------------------|-------------------|
D|-----------------11p10----------|-------------------|
A|-----------------------11h12----|-------------------|
E|-10h13p12p10h12~-------------5b-|-15p13p12h15p13p12-|x16

E|-------------------|-------------------|-------------------|
B|-------------------|-------------------|-------------------|
G|-------------------|-------------------|-18p14p13h18p14p13-|
D|-------------------|-16p12p11h16p12p11-|-------------------|
A|-14p12p10h14p12p10-|-------------------|-------------------|
E|-------------------|-------------------|-------------------|
                   x16                  x16                 x16

E|-------------------|-19p17p15h19p17p15-|-22b-22b-|
B|-19p18p16h19p18p16-|-------------------|---------|
G|-------------------|-------------------|---------|
D|-------------------|-------------------|---------|
A|-------------------|-------------------|---------|
E|-------------------|-------------------|---------|
                   x16                 x16

Tap to rate this tab
 
# A B C D E F G H I J K L M N O P Q R S T U V W X Y Z