Song name
# A B C D E F G H I J K L M N O P Q R S T U V W X Y Z

Washya - Eternal Light tab

-----------------------------------------------------------------------------
                          Eternal Light - Washya
-----------------------------------------------------------------------------
Tuning: Drop D (DADGBE)
Intro
E|-------------------------|
B|-------------------------|
G|-------------------------|
D|-------------5-----------|
A|-6-5-0-3-5-0-3-0-3-5-6-5-|
E|-6-5-0-3-5-0---0-3-5-6-5-|
PM * * * * * *   * * * * * 

Verses
E|-------------------------------------------------------------------|
B|-------------------------------------------------------------------|
G|-------------------------------------------------------------------|
D|---------------5-----------------7-----------------3-0h3p2p0-2p0---|
A|---------------3-----------------5-----------------1-------------3-|
D|-0-0-0-0-0-0-0---0-0-0-0-0-0-0-0---0-0-0-0-0-0-0-0-----------------|
PM * * * * * * *   * * * * * * * *   * * * * * * * * 

Chorus
E|-------------------------------------------------------------------------|
B|-------------------------------------------------------------------------|
G|-----7/5-------------------7-7-7/9/10\9\7---------------------5-5555-----|
D|-------------------------------------------------------------------------|
A|-0-0-5/3-3-0-1-3-1-3-0-0-0-5-5-5/7/8-\7\5-5-5-5-5-5/8-8-8-8-8-3-3333-2h3-|
D|-0-0-----3-0-1-3-1-3-0-0-0----------------5-5-5-5-5/8-8-8-8-8--------2h3-|
PM * *                 * * *                * * * * *    

Guitar Solo (play twice)
E|--------------------------------------------------------|
B|--------------------------------------------------------|
G|-------6-----------------10-----------------------------|
D|-8-6-----6-4-------8-6------10-8---8---8bp6-------------|
A|-----8-----------------8---------6---6------8-7-6-7-6-4-|
D|-------------4~/7~--------------------------8-7-6-7-6-4-|
PM                                            * * * * * * 

Intro
E|-------------------------|
B|-------------------------|
G|-------------------------|
D|-------------5-----------|
A|-6-5-0-3-5-0-3-0-3-5-6-5-|
E|-6-5-0-3-5-0---0-3-5-6-5-|
PM * * * * * *   * * * * * 

Verses
E|-------------------------------------------------------------------|
B|-------------------------------------------------------------------|
G|-------------------------------------------------------------------|
D|---------------5-----------------7-----------------3-0h3p2p0-2p0---|
A|---------------3-----------------5-----------------1-------------3-|
D|-0-0-0-0-0-0-0---0-0-0-0-0-0-0-0---0-0-0-0-0-0-0-0-----------------|
PM * * * * * * *   * * * * * * * *   * * * * * * * * 

Chorus
E|-------------------------------------------------------------------------|
B|-------------------------------------------------------------------------|
G|-----7/5-------------------7-7-7/9/10\9\7---------------------5-5555-----|
D|-------------------------------------------------------------------------|
A|-0-0-5/3-3-0-1-3-1-3-0-0-0-5-5-5/7/8-\7\5-5-5-5-5-5/8-8-8-8-8-3-3333-2h3-|
D|-0-0-----3-0-1-3-1-3-0-0-0----------------5-5-5-5-5/8-8-8-8-8--------2h3-|
PM * *                 * * *                * * * * *    
Tap to rate this tab
# A B C D E F G H I J K L M N O P Q R S T U V W X Y Z