Song name
# A B C D E F G H I J K L M N O P Q R S T U V W X Y Z

Washya - Changing Lanes tab

------------------------------------------------------------------------------
                            Changing Lanes - Washya
------------------------------------------------------------------------------
Tuning: Standard (EBGDAE)
Intro
E|---------------|
B|---------------|
G|---------------|
D|-9/12\7/8\4----|
A|-7/10\5/6\2-4~-|
E|------------2~-|

Verses
E|-----------------------------------------------|
B|-----------------------------------------------|
G|-----------------------------------------------|
D|-2---2---2---2h3p2p0-2---2---2---2---5-3-2-----|
A|-2---2---2---2---2---2---2---2---2---5-3-2-2-4-|
E|---0---0---0-----------0---0---0---0-------0-2-|
PM   *   *   *           *   *   *   *    

Chorus
E|-------------------------------------------------------|
B|-------------------------------------------------------|
G|---5/8--------8/13-10----------------------------------|
D|---x-x--------x-xx-x------------5-3--------8-7-6-------|
A|-2-3/6-8-8888-6/11-8-7-9-5-5555-3-1-2-2222-6-5-3-5/7-2-|
E|-0-----6-6666--------5-7-3-3333-----0-0000-------3/5-0-|
PM         ****              ****       **** 

Verses
E|-----------------------------------------------|
B|-----------------------------------------------|
G|-----------------------------------------------|
D|-2---2---2---2h3p2p0-2---2---2---2---5-3-2-----|
A|-2---2---2---2---2---2---2---2---2---5-3-2-2-4-|
E|---0---0---0-----------0---0---0---0-------0-2-|
PM   *   *   *           *   *   *   *    
Tap to rate this tab
# A B C D E F G H I J K L M N O P Q R S T U V W X Y Z