Song name
# A B C D E F G H I J K L M N O P Q R S T U V W X Y Z

Washya - Strength In Numbers tab

------------------------------------------------------------------------------
           Strength In Numbers - Washya
------------------------------------------------------------------------------
Tuning: Standard (EBGDAE)
Intro
E|---------------------------|
B|---------------------------|
G|---------------------------|
D|-7-77-----55----777--------|
A|-5-55-7-7-33-55-555-5-55-7-|
E|------5-5----33-----3-33-5-|

Verses
E|-------------------------------------------------------|
B|-------------------------------------------------------|
G|-------------------------------------------------------|
D|-------------------------------------------------------|
A|------77777777-6/7-6/7777777-3/4-3/4444444-5/6/7-8\7\5-|
E|-xx\\-55555555-4/5-4/5555555-1/2-1/2222222-3/4/5-6\5\3-|
PM      ********       *******       *******  

Chorus
E|------------------------------------------------------------------------|
B|------------------------------------------------------------------------|
G|------------------------------------------------------------------------|
D|-7777-777-77-7777------------------3333-333-33-3333---------------------|
A|-5555-555-55-5555-5555-555-55-5555-1111-111-11-1111-3333-333-33-3333-22-|
E|------------------3333-333-33-3333------------------1111-111-11-1111-00-|
Tap to rate this tab
 
# A B C D E F G H I J K L M N O P Q R S T U V W X Y Z