Song name
# A B C D E F G H I J K L M N O P Q R S T U V W X Y Z

Washya - Strung Out tab

-----------------------------------------------------------------------------
         Strung Out - Washya
-----------------------------------------------------------------------------
Tuning: Drop C (DAFCGC)
Intro
D|--------------------------------------------------------|
A|--------------------------------------------------------|
F|---------7--------7--------5--------5--------3--------3-|
C|---------5--------5--------3--------3--------1--------1-|
G|---------5--------5--------3--------3--------1--------1-|
C|-555555555-55555555-33333333-33333333-11111111-11111111-|
PM ********  *******  *******  *******  *******  ******* 

Main Riff
D|---------------------------------------------|
A|---------------------------------------------|
F|-----5---7-----------------------------------|
C|-----5---7---------------3-------------------|
G|-----3---5-----6-5-3---5---5-4-3-------------|
C|-000---0---000-6-5-3//-----------5-6-000-000-|
PM ***   *   ***                       *** *** 

Verses
D|-------------------------------------------------------------|
A|-------------------------------------------------------------|
F|-7-----7-7--5-----5-5--3-----3-3-----------------------------|
C|-5-----5-5--3-----3-3--1-----1-1-----------------------------|
G|-5-----5-5--3-----3-3--1-----1-1-----3-1-4-3-1-000-11-000-11-|
C|-5-555-5-5--3-333-3-3--1-111-1-1-1-4-----4-3-1-000-11-000-11-|
PM   ***        ***        ***                       ^^     ^^
                                                    one's  one's           
Tap to rate this tab
# A B C D E F G H I J K L M N O P Q R S T U V W X Y Z