Song name
# A B C D E F G H I J K L M N O P Q R S T U V W X Y Z

Washya - Swept Away tab

-----------------------------------------------------------------------------
                       Swept Away - Washya
-----------------------------------------------------------------------------
Tuning: Standard (EBGDAE)
intro
E|-8-7-8-/10-8---8-7-8-/10-8-------|
B|-------------7-------------7-6-7-|
G|---------------------------------|
D|---------------------------------|
A|---------------------------------|
E|---------------------------------|x2

Verses
E|--------------------------------------------|
B|--------------------------------------------|
G|-777-7---------555-5/7-777-7/9-999----------|
D|-777-7-777-7-6---------------------999-99-8-|
A|-555-4-777-7-6-333-3/5-555-5/7-777-999-99-8-|
E|-------555-4-4---------------------777-66-6-|

Chorus
E|-----------------------------------------------------------|
B|-----------------------------------------------------------|
G|-222-2-22-----666-6-66-----999-9-99-----101010--10-1010----|
D|-222-2-22-----555-5-55-----888-8-88-----9-9-9---9--9-9-----|
A|-000-0-00-x4--333-3-33-x3--666-6-66-x2--7-7-7---7--7-7--x1-|
E|-----------------------------------------------------------|

Interlude
E|--------------------------------------|
B|------------------------------------0-|
G|---5-----7-----9--------6----3--------|
D|---------------------/7---/4-----/1---|
A|-----3-----5-----7--------------------|
E|-0-----0-----0-----0-----------0------|
PM *     *     *     *           * 
Tap to rate this tab
# A B C D E F G H I J K L M N O P Q R S T U V W X Y Z