Guitaretab - guitar tabs
Song name
# A B C D E F G H I J K L M N O P Q R S T U V W X Y Z

We As Human - Dead Man tab

We As Human                                 http://www.weashuman.com/
Dead Man                                    http://www.myspace.com/weashuman
Tabbed by U B the band
Tuning D A D G B E

Legend
\-slide down                       /-slide up

We As Human is an awesome band and there are no tabs for them yet so I thought
Id start tabbing some of their songs. Check out their official site and their
MySpace, the links are above the tab. Please comment and rate, Thank You. 

Intro: Guitar 1 (Distorted & Palm Muted) JUSTIN
E|----------------------------------------------------------------------------|
B|----------------------------------------------------------------------------|
G|---------6-6-6---------6-6-6-6-5-3-5---------6-6-6---------6-6-6-6-5-3-5----|
D|----------------------------------------------------------------------------|
A|--3-3-3---------3-3-3-----------------3-3-3---------3-3-3-------------------|
D|----------------------------------------------------------------------------|

Intro: Guitar 1 (Distorted & Palm Muted) JUSTIN
E|----------------------------------------------------------------------------|
B|----------------------------------------------------------------------------|
G|---------6-6-6---------6-6-6-6-5-3-5---------6-6-6-------6------------------|
D|----------------------------------------------------------------------------|
A|--3-3-3---------3-3-3-----------------3-3-3---------3-3---------------------|
D|----------------------------------------------------------------------------|
                                                                              |
Intro: Guitar 2 (Distorted & Palm Muted) TOM                                  |
E|----------------------------------------------------------------------------|
B|----------------------------------------------------------------------------|
G|----------------------------------------------------------------------------|
D|---------5-5-5---------5-5-5-6-5-3-5---------5-5-5-------5------------------|
A|--3-3-3---------3-3-3-----------------3-3-3---------3-3---------------------|
D|----------------------------------------------------------------------------|

Pre Verse: Guitars 1 & 2 (Distorted) PLAY 2 TIMES
E|----------------------------------------------------------------------------|
B|----------------------------------------------------------------------------|
G|--5-5-5-5-5\3---6---------------------5-5-5-5-5\3---6-----------------------|
D|--x-x-x-x-x-x---x---------------------x-x-x-x-x-x---x-----------------------|
A|--3-3-3-3-3\1---4---------------------3-3-3-3-3\1---4-----------------------|
D|----------------------------------------------------------------------------|

Verse 1: Guitar 1 (Distorted)
E|--15------------------------------------------------------------------------|
B|----------------------------------------------------------------------------|
G|--------17------------------------------18----------------------------------|
D|----------------------------------------------------------------------------|
A|----------------------------------------------------------------------------|
D|----------------------------------------------------------------------------|
                                                                              |
Verse 1: Guitar 2 (Distorted & Palm Muted)                                    |
E|----------------------------------------------------------------------------|
B|----------------------------------------------------------------------------|
G|----------------------------------------------------------------------------|
D|--5--5--5-----5--5--5---5---5--5--5-----5--5--5-----5--5--5---5---5--5--5---|
A|--3--3--3-----3--3--3---3---3--3--3-----3--3--3-----3--3--3---3---3--3--3---|
D|----------------------------------------------------------------------------|

Verse 1: Guitar 1 (Distorted)
E|--15------------------------------------------------------------------------|
B|----------------------------------------------------------------------------|
G|--------17------------------------------15----------------13----------------|
D|----------------------------------------------------------------------------|
A|----------------------------------------------------------------------------|
D|----------------------------------------------------------------------------|
                                                                              |
Verse 1: Guitar 2 (Distorted & Palm Muted)                                    |
E|----------------------------------------------------------------------------|
B|----------------------------------------------------------------------------|
G|----------------------------------------------------------------------------|
D|--5-----------5--5--5---5---5--5--5-----5--5--5-----5--5--5---5---5--5--5---|
A|--3-----------3--3--3---3---3--3--3-----3--3--3-----3--3--3---3---3--3--3---|
D|----------------------------------------------------------------------------|

Verse 1: Guitar 1 (Distorted)
E|--15------------------------------------------------------------------------|
B|----------------------------------------------------------------------------|
G|--------17------------------------------18----------------------------------|
D|----------------------------------------------------------------------------|
A|----------------------------------------------------------------------------|
D|----------------------------------------------------------------------------|
                                                                              |
Verse 1: Guitar 2 (Distorted & Palm Muted)                                    |
E|----------------------------------------------------------------------------|
B|----------------------------------------------------------------------------|
G|----------------------------------------------------------------------------|
D|--5-----------5--5--5---5---5--5--5-----5--5--5-----5--5--5---5---5--5--5---|
A|--3-----------3--3--3---3---3--3--3-----3--3--3-----3--3--3---3---3--3--3---|
D|----------------------------------------------------------------------------|

Verse 1: Guitar 1 (Distorted)
E|--15------------------------------------------------------------------------|
B|----------------------------------------------------------------------------|
G|--------17------------------------------15----------------13----------------|
D|----------------------------------------------------------------------------|
A|----------------------------------------------------------------------------|
D|----------------------------------------------------------------------------|
                                                                              |
Verse 1: Guitar 2 (Distorted & Palm Muted)                                    |
E|----------------------------------------------------------------------------|
B|----------------------------------------------------------------------------|
G|----------------------------------------------------------------------------|
D|--5-----------5--5--5---5---5--5--5-----5--5--5-----5--5--5---5---5--5--5---|
A|--3-----------3--3--3---3---3--3--3-----3--3--3-----3--3--3---3---3--3--3---|
D|----------------------------------------------------------------------------|

Chorus: Guitar 2 (Distorted) PLAY ENTIRE CHORUS TWO TIMES
E|----------------------------------------------------------------------------|
B|----------------------------------------------------------------------------|
G|--5-5-5-5--5-5-5-5--5-5-5-5--5-5-5-5--3-3-3-3--3-3-3-3--3-3-3-3--3-3-3-3----|
D|--5-5-5-5--5-5-5-5--5-5-5-5--5-5-5-5--3-3-3-3--3-3-3-3--3-3-3-3--3-3-3-3----|
A|--3-3-3-3--3-3-3-3--3-3-3-3--3-3-3-3--1-1-1-1--1-1-1-1--1-1-1-1--1-1-1-1----|
D|----------------------------------------------------------------------------|

Chorus: Guitar 2 (Distorted)
E|----------------------------------------------------------------------------|
B|----------------------------------------------------------------------------|
G|----------------------------------------------------------------------------|
D|--3-3-3-3--3-3-3-3--3-3-3-3--3-3-3-3--6-6-6-6--6-6-6-6--5-5-5-5--5-5-5-5----|
A|--3-3-3-3--3-3-3-3--3-3-3-3--3-3-3-3--6-6-6-6--6-6-6-6--5-5-5-5--5-5-5-5----|
D|--3-3-3-3--3-3-3-3--3-3-3-3--3-3-3-3--6-6-6-6--6-6-6-6--5-5-5-5--5-5-5-5----|

Post Chorus: Guitars 1 & 2 (Distorted & Palm Muted)
E|----------------------------------------------------------------------------|
B|----------------------------------------------------------------------------|
G|----------------------------------------------------------------------------|
D|--5--5--5-----5--5--5---5---5--5--5-----5-------5--5------------------------|
A|--3--3--3-----3--3--3---3---3--3--3-----3--333--3--3------------------------|
D|----------------------------------------------------------------------------|
[ Tab from: http://www.guitaretab.com/w/we-as-human/183826.html ]
Verse 2: Guitar 1 (Distorted)
E|--15------------------------------16----------------------------------------|
B|----------------------------------------15----------------------------------|
G|----------------------------------------------------------------------------|
D|----------------------------------------------------------------------------|
A|----------------------------------------------------------------------------|
D|----------------------------------------------------------------------------|
                                                                              |
Verse 2: Guitar 2 (Distorted & Palm Muted)                                    |
E|----------------------------------------------------------------------------|
B|----------------------------------------------------------------------------|
G|----------------------------------------------------------------------------|
D|--5--5--5-----5--5--5---5---5--5--5-----5--5--5-----5--5--5---5---5--5--5---|
A|--3--3--3-----3--3--3---3---3--3--3-----3--3--3-----3--3--3---3---3--3--3---|
D|----------------------------------------------------------------------------|

Verse 2: Guitar 1 (Distorted)
E|--15------------------------------16----------------------------------------|
B|----------------------------------------15----------14----------------------|
G|----------------------------------------------------------------------------|
D|----------------------------------------------------------------------------|
A|----------------------------------------------------------------------------|
D|----------------------------------------------------------------------------|
                                                                              |
Verse 2: Guitar 2 (Distorted & Palm Muted)                                    |
E|----------------------------------------------------------------------------|
B|----------------------------------------------------------------------------|
G|----------------------------------------------------------------------------|
D|--5-----------5--5--5---5---5--5--5-----5--5--5-----5--5--5---5---5--5--5---|
A|--3-----------3--3--3---3---3--3--3-----3--3--3-----3--3--3---3---3--3--3---|
D|----------------------------------------------------------------------------|

Verse 2: Guitar 1 (Distorted)
E|--15------------------------------------16----------------------------------|
B|----------------------------------------------------------------------------|
G|----------------------------------------------------------------------------|
D|----------------------------------------------------------------------------|
A|----------------------------------------------------------------------------|
D|----------------------------------------------------------------------------|
                                                                              |
Verse 2: Guitar 2 (Distorted & Palm Muted)                                    |
E|----------------------------------------------------------------------------|
B|----------------------------------------------------------------------------|
G|----------------------------------------------------------------------------|
D|--5--5--5-----5--5--5---5---5--5--5-----5--5--5-----5--5--5---5---5--5--5---|
A|--3--3--3-----3--3--3---3---3--3--3-----3--3--3-----3--3--3---3---3--3--3---|
D|----------------------------------------------------------------------------|

Verse 2: Guitar 1 (Distorted)
E|--18------------------------------------------------------------------------|
B|----------------------------------------17----------------15----------------|
G|----------------------------------------------------------------------------|
D|----------------------------------------------------------------------------|
A|----------------------------------------------------------------------------|
D|----------------------------------------------------------------------------|
                                                                              |
Verse 2: Guitar 2 (Distorted & Palm Muted)                                    |
E|----------------------------------------------------------------------------|
B|----------------------------------------------------------------------------|
G|----------------------------------------------------------------------------|
D|--5-----------5--5--5---5---5--5--5-----5--5--5-----5--5--5---5---5--5--5---|
A|--3-----------3--3--3---3---3--3--3-----3--3--3-----3--3--3---3---3--3--3---|
D|----------------------------------------------------------------------------|

Chorus: Guitar 2 (Distorted) PLAY ENTIRE CHORUS TWO TIMES
E|----------------------------------------------------------------------------|
B|----------------------------------------------------------------------------|
G|--5-5-5-5--5-5-5-5--5-5-5-5--5-5-5-5--3-3-3-3--3-3-3-3--3-3-3-3--3-3-3-3----|
D|--5-5-5-5--5-5-5-5--5-5-5-5--5-5-5-5--3-3-3-3--3-3-3-3--3-3-3-3--3-3-3-3----|
A|--3-3-3-3--3-3-3-3--3-3-3-3--3-3-3-3--1-1-1-1--1-1-1-1--1-1-1-1--1-1-1-1----|
D|----------------------------------------------------------------------------|

Chorus: Guitar 2 (Distorted)
E|----------------------------------------------------------------------------|
B|----------------------------------------------------------------------------|
G|----------------------------------------------------------------------------|
D|--3-3-3-3--3-3-3-3--3-3-3-3--3-3-3-3--6-6-6-6--6-6-6-6--5-5-5-5--5-5-5-5----|
A|--3-3-3-3--3-3-3-3--3-3-3-3--3-3-3-3--6-6-6-6--6-6-6-6--5-5-5-5--5-5-5-5----|
D|--3-3-3-3--3-3-3-3--3-3-3-3--3-3-3-3--6-6-6-6--6-6-6-6--5-5-5-5--5-5-5-5----|

Bridge: Guitar 1 (Distorted) PLAY ENTIRE BRIDGE 2 TIMES
E|----------------------------------------------------------------------------|
B|----------------------------------------------------------------------------|
G|--5----------------8-8-8-8--7-7-7---5----------------8-8-8-8--1010--12------|
D|--x----------------x-x-x-x--x-x-x---x----------------x-x-x-x--x-x----x------|
A|--3----------------6-6-6-6--5-5-5---3----------------6-6-6-6--8-8---10------|
D|----------------------------------------------------------------------------|
                                                                              |
Bridge: Guitar 2 (Distorted)                                                  |
E|----------------------------------------------------------------------------|
B|----------------------------------------------------------------------------|
G|--5----------------8-8-8-8--7-7-7---5----------------8-8-8-8--3-3---5-------|
D|--5----------------x-x-x-x--x-x-x---5----------------x-x-x-x--x-x---x-------|
A|--3----------------6-6-6-6--5-5-5---3----------------6-6-6-6--1-1---3-------|
D|----------------------------------------------------------------------------|

Chorus 2: Guitar 2 (Clean with Reverb) PLAY TWO TIMES
E|----------------------------------------------------------------------------|
B|----------------------------------------------------------------------------|
G|-----0--------------3-------------------------------------------------------|
D|--------0-h1--------3--------------5-/6--------------8--------------8-------|
A|--3-----------------1-----------3-----------------6--------------5----------|
D|-----------------------------3-----------------6--------------5-------------|

Chorus: Guitar 2 (Distorted) PLAY ENTIRE CHORUS TWO TIMES
E|----------------------------------------------------------------------------|
B|----------------------------------------------------------------------------|
G|--5-5-5-5--5-5-5-5--5-5-5-5--5-5-5-5--3-3-3-3--3-3-3-3--3-3-3-3--3-3-3-3----|
D|--5-5-5-5--5-5-5-5--5-5-5-5--5-5-5-5--3-3-3-3--3-3-3-3--3-3-3-3--3-3-3-3----|
A|--3-3-3-3--3-3-3-3--3-3-3-3--3-3-3-3--1-1-1-1--1-1-1-1--1-1-1-1--1-1-1-1----|
D|----------------------------------------------------------------------------|

Chorus: Guitar 2 (Distorted)
E|----------------------------------------------------------------------------|
B|----------------------------------------------------------------------------|
G|----------------------------------------------------------------------------|
D|--3-3-3-3--3-3-3-3--3-3-3-3--3-3-3-3--6-6-6-6--6-6-6-6--5-5-5-5--5-5-5-5----|
A|--3-3-3-3--3-3-3-3--3-3-3-3--3-3-3-3--6-6-6-6--6-6-6-6--5-5-5-5--5-5-5-5----|
D|--3-3-3-3--3-3-3-3--3-3-3-3--3-3-3-3--6-6-6-6--6-6-6-6--5-5-5-5--5-5-5-5----|

Outro: Guitars 1 & 2 (Distorted)
E|----------------------------------------------------------------------------|
B|----------------------------------------------------------------------------|
G|----------------------------------8-------------------------------------8---|
D|--5--5--5-----5--5--5---5---5--5--x-----5--5--5-----5--5--5---5---5--5--x---|
A|--3--3--3-----3--3--3---3---3--3--6-----3--3--3-----3--3--3---3---3--3--6---|
D|----------------------------------------------------------------------------|

Outro: Guitars 1 & 2 (Distorted)
E|----------------------------------------------------------------------------|
B|----------------------------------------------------------------------------|
G|----------------------------------8-----------------------------------------|
D|--5--5--5-----5--5--5---5---5--5--x-----5--5--5-----------------------------|
A|--3--3--3-----3--3--3---3---3--3--6-----3--3--3-----------------------------|
D|----------------------------------------------------------------------------|

Finished!
Related for Dead Man tab