Song name
# A B C D E F G H I J K L M N O P Q R S T U V W X Y Z

We As Human - Take The Bullets Away tab

-------------------------------------------------------------------------------
                             TAKE THE BULLETS AWAY - We as Human
-------------------------------------------------------------------------------

Tuning: Drop C

Intro (x2)
e|-------------------------------------------|
B|-------------------------------------------|
G|-------------------------------------------|
D|--4------------------(x5)------4--------2--|
A|-----2-2-2-5-2-2-2---(x5)--------2-2-2--2--|
E|----------------------------------------2--|
  X  x x x x  x.  X x.             X x x. X
Chorus (x3)
e|-----------------------------------------|
B|-----------------------------------------|
G|--5 (x8)---------------------------------|
D|--5 (x8)---2 (x8)-----5 (x8)-----0 (x8)--|
A|--3 (x8)---2 (x8)-----5 (x8)-----0 (x8)--|
E|----------2 (x8)-----5 (x8)-----0 (x8)---|

Post chorus
e|----------------------------|
B|----------------------------|
G|----5 (x8)------------------|
D|----5 (x8)----1 (x8)-----2--|
A|----3 (x8)----1 (x8)-----2--|
E|-------------1 (x8)------2--|

Then play verse, and chorus but the 2nd post chorus goes...
e|------------------------------------|
B|------------------------------------|
G|----5 (x8)--------------------------|
D|----5 (x8)----1 (x8)------2 (x16?)--|
A|----3 (x8)----1 (x8)------2 (x16?)--|
E|-------------1 (x8)-------2 (x16?)--|
                               X
Then the bridge
e|------------------------------------------------------------------------|
B|------------------------------------------------------------------------|
G|-----------------------------------------------7------9-----------------|
D|--3 (x8)----7 (x8)------5 (x16)-----------------7------9-----2-------2--|
A|--3 (x8)----7 (x8)------5 (x16)------(x3)--------5------7----2-------2--|
E|--3 (x8)----7 (x8)------5 (x16)------------------------------2-------2--|

Then play the chorus and post chorus, and keep playing the 2nd fret for the rest of the 
song. I like to add some muted notes, but that's just me.


************************************

| /   slide up
| \   slide down
| h   hammer-on
| p   pull-off
| ~   vibrato
| +   harmonic
| x   Mute note
| b   Bend
| pb  Pre-bend
| br  Bend release
| pbr Pre-bend release
| brb Bend release bend

************************************
Tap to rate this tab
# A B C D E F G H I J K L M N O P Q R S T U V W X Y Z