Song name
# A B C D E F G H I J K L M N O P Q R S T U V W X Y Z

We Came As Romans - To Plant A Seed tab

-------------------------------------------------------------------------------
		                       To Plant A Seed - We Came As Romans
-------------------------------------------------------------------------------
Tabbed by: Raphael Bastek
Email: raf_gpm@yahoo.com

Tuning: Drop D

Intro Only
I combined both guitars to make one tab

e|-------------8-----8-8-------------8-----8-----8-----------------------------|
B|-----------6-----6-----6-------------6-----6-----6---------------------------|
G|-------9-9-----9-----------------------9-----9-----9-------------------------|
D|-8-9-0-------------------8-6-8-9-0-------------------------------------------|
A|-8-9-0-------------------8-6-8-9-0-------------------------------------------|
D|-8-9-0-------------------8-6-8-9-0-------------------------------------------|  

Repeat that ^^ twice.
Then:

e|-----------------------------------------------------------------------------|
B|-----------------------------------------------------------------------------|
G|-----------------------------------------------------------------------------|
D|-8-6-8-9---8-6-8-9-----------------------------------------------------------|
A|-8-6-8-9---8-6-8-9-----------------------------------------------------------|
D|-8-6-8-9---8-6-8-9-----------------------------------------------------------|
Tap to rate this tab
# A B C D E F G H I J K L M N O P Q R S T U V W X Y Z