Guitaretab - guitar tabs
Song name
# A B C D E F G H I J K L M N O P Q R S T U V W X Y Z

Ween - Buckingham Green tab

 Am                      Am                      Am
  1  +  2  +  3  +  4  +  1  +  2  +  3  +  4  +  1  +  2  +  3  +  4  +
E ------------------7h8p7-5-----------------------------------------------|
B ------------------------------------------8---/-12----10----8-----10----|
G ------------------------------------------------------------------------|
D ------------------------------------------------------------------------|
A ------------------------------------------------------------------------|
E ------------------------------------------------------------------------|

  3                       4                       5
  F                       F                       C
  1  +  2  +  3  +  4  +  1  +  2  +  3  +  4  +  1  +  2  +  3  +  4  +
E -------------------------------------------------------------------------|
B 6-----------------6--8-/10----8-----6-----8-----5------------------------|
G ------------------------------------------------------------------5--7---|
D -------------------------------------------------------------------------|
A -------------------------------------------------------------------------|
E -------------------------------------------------------------------------|

  6                       7                       8
  C                       Dm                      Dm
  1  +  2  +  3  +  4  +  1  +  2  +  3  +  4  +  1  +  2  +  3  +  4  +
E ------------------------------------------------------------------------|
B ------------------------------------------------------------------------|
G 9-----7-----5-----9-----7-----------------7--9-/10----9-----7---/-10----|
D ------------------------------------------------------------------------|
A ------------------------------------------------------------------------|
E ------------------------------------------------------------------------|


  9                       10                      11
  Em                      Em                      E
  1  +  2  +  3  +  4  +  1  +  2  +  3  +  4  +  1  +  2  +  3  +  4  +
E ------------------------------------------------------------------------|
B ------------------------8-----------------8-----9-----------------------|
G 9-----------------9--10----10-9-----10----------------------------------|
D ------------------------------------------------------------------------|
A ------------------------------------------------------------------------|
E ------------------------------------------------------------------------|
[ Tab from: http://www.guitaretab.com/w/ween/54379.html ]
  12                      13                      14
  E                       Cmaj7 (end verse fill)
  1  +  2  +  3  +  4  +  1  +  2  +  3  +  4  +  1  +  2  +  3  +  4  +
E ------------------7h8p7-5-----------------------------------------------|
B ------------------------------------------8---/-12----10----8-----10----|
G ------------------------------------------------------------------------|
D ------------------------------------------------------------------------|
A ------------------------------------------------------------------------|
E ------------------------------------------------------------------------|

  15                      16
  A(no 3rd)
  1  +  2  +  3  +  4  +  1  +  2  +  3  +  4  +
E 8-----------------------------------------------|
B ------------------------------------------------|
G ------------------------------------------------|
D ------------------------------------------------|
A ------------------------------------------------|
E ------------------------------------------------|


Then the big one.


  Amin.

E:----------------------------------------------|
B:------------------20--------------------------|
G:--17------17--19------19----------------------|(quick bend and release)
D:------19--------------------------------------|
A:----------------------------------------------|
E:----------------------------------------------|

  Amin.

E:---------------------------------------------|
B:---------------------------------------------|
G:--17-----17--19--19(partial bend)--17--19----|
D:-----19--------------------------------------|
A:---------------------------------------------|
E:---------------------------------------------|

          Cmaj.-Dmaj.

E:--------------20--19--17----------------------|
B:--------------------------20--19--17----------|
G:--17--19--17--------------------------19------|(freak
D:----------------------------------------------|out on this
A:----------------------------------------------|note w/bending
E:----------------------------------------------|etc.)

   Fmaj.                                  F7

E:-----------------------------------------------|
B:-----------------------------------------------|
G:--17----------17(h/p)19--17----------17--19----|(full
D:------19---------------------19----------------|bend)
A:----------20---------------------20------------|
E:-----------------------------------------------|

   E7

E:----------16----------------------------------|
B:------17------17------------------------------|
G:--17--------------17--16--17--19--19--17--16--|
D:----------------------------------------------|
A:----------------------------------------------|
E:----------------------------------------------|

Boognish Bless
Related for Buckingham Green tab
Advertisement will be closed in 10 seconds