Song name
# A B C D E F G H I J K L M N O P Q R S T U V W X Y Z

Weezer - Who Cares tab

band: weezer
song: who cares
e--------------------------------------------|
b-------------------5-4-3--6-5-4-------------|
g--------------------------------------------|
d----3-3-3--3-3-3----------------------------|
a -------------------------------------------|
e--------------------------------------------|

e----------------------------------------------------|
b---------------------------------------8--8-8-------|
8g------------------8-7-6-5--------------------------|
d--3-4-5-6-7-8-9------------7--6-5-------------------|
a----------------------------------6-7---------------|
e----------------------------------------------------|
Tap to rate this tab
# A B C D E F G H I J K L M N O P Q R S T U V W X Y Z